  0
SECTION
  2
HEADER
  9
$ACADVER
  1
AC1015
  9
$ACADMAINTVER
 70
           6
  9
$DWGCODEPAGE
  3
ANSI_932
  9
$INSBASE
 10
0.0
 20
0.0
 30
0.0
  9
$EXTMIN
 10
273.59672258357
 20
-137.672657
 30
0.0
  9
$EXTMAX
 10
711.483323677423
 20
8.172080437335
 30
0.0
  9
$LIMMIN
 10
110.870437
 20
-137.672657
  9
$LIMMAX
 10
803.068338
 20
247.575701
  9
$ORTHOMODE
 70
           0
  9
$REGENMODE
 70
           1
  9
$FILLMODE
 70
           1
  9
$QTEXTMODE
 70
           0
  9
$MIRRTEXT
 70
           1
  9
$LTSCALE
 40
1.0
  9
$ATTMODE
 70
           0
  9
$TEXTSIZE
 40
4.662005
  9
$TRACEWID
 40
1.0
  9
$TEXTSTYLE
  7
STANDARD
  9
$CLAYER
  8
0
  9
$CELTYPE
  6
Continuous
  9
$CECOLOR
 62
           7
  9
$CELTSCALE
 40
1.0
  9
$DISPSILH
 70
           0
  9
$DIMSCALE
 40
1.0
  9
$DIMASZ
 40
3.0
  9
$DIMEXO
 40
1.0
  9
$DIMDLI
 40
7.5
  9
$DIMRND
 40
2.0
  9
$DIMDLE
 40
0.0
  9
$DIMEXE
 40
2.0
  9
$DIMTP
 40
0.0
  9
$DIMTM
 40
0.0
  9
$DIMTXT
 40
3.787879
  9
$DIMCEN
 40
0.09
  9
$DIMTSZ
 40
0.0
  9
$DIMTOL
 70
           0
  9
$DIMLIM
 70
           0
  9
$DIMTIH
 70
           1
  9
$DIMTOH
 70
           1
  9
$DIMSE1
 70
           0
  9
$DIMSE2
 70
           0
  9
$DIMTAD
 70
           1
  9
$DIMZIN
 70
           8
  9
$DIMBLK
  1

  9
$DIMASO
 70
           0
  9
$DIMSHO
 70
           1
  9
$DIMPOST
  1

  9
$DIMAPOST
  1

  9
$DIMALT
 70
           0
  9
$DIMALTD
 70
           2
  9
$DIMALTF
 40
25.4
  9
$DIMLFAC
 40
1.0
  9
$DIMTOFL
 70
           1
  9
$DIMTVP
 40
0.0
  9
$DIMTIX
 70
           0
  9
$DIMSOXD
 70
           0
  9
$DIMSAH
 70
           0
  9
$DIMBLK1
  1

  9
$DIMBLK2
  1

  9
$DIMSTYLE
  2
STANDARD
  9
$DIMCLRD
 70
          45
  9
$DIMCLRE
 70
          45
  9
$DIMCLRT
 70
          45
  9
$DIMTFAC
 40
1.0
  9
$DIMGAP
 40
2.0
  9
$DIMJUST
 70
           0
  9
$DIMSD1
 70
           0
  9
$DIMSD2
 70
           0
  9
$DIMTOLJ
 70
           1
  9
$DIMTZIN
 70
           0
  9
$DIMALTZ
 70
           0
  9
$DIMALTTZ
 70
           0
  9
$DIMUPT
 70
           0
  9
$DIMDEC
 70
           4
  9
$DIMTDEC
 70
           4
  9
$DIMALTU
 70
           2
  9
$DIMALTTD
 70
           2
  9
$DIMTXSTY
  7
STANDARD
  9
$DIMAUNIT
 70
           0
  9
$DIMADEC
 70
           4
  9
$DIMALTRND
 40
0.0
  9
$DIMAZIN
 70
           0
  9
$DIMDSEP
 70
           0
  9
$DIMATFIT
 70
           0
  9
$DIMFRAC
 70
           0
  9
$DIMLDRBLK
  1

  9
$DIMLUNIT
 70
           2
  9
$DIMLWD
 70
           0
  9
$DIMLWE
 70
           0
  9
$DIMTMOVE
 70
           0
  9
$LUNITS
 70
           2
  9
$LUPREC
 70
           2
  9
$SKETCHINC
 40
1.0
  9
$FILLETRAD
 40
0.181417
  9
$AUNITS
 70
           0
  9
$AUPREC
 70
           2
  9
$MENU
  1
acad
  9
$ELEVATION
 40
0.0
  9
$PELEVATION
 40
0.0
  9
$THICKNESS
 40
0.0
  9
$LIMCHECK
 70
           0
  9
$CHAMFERA
 40
0.0
  9
$CHAMFERB
 40
0.0
  9
$CHAMFERC
 40
0.0
  9
$CHAMFERD
 40
0.0
  9
$SKPOLY
 70
           0
  9
$TDCREATE
 40
0.000000000
  9
$TDUCREATE
 40
0.000000000
  9
$TDUPDATE
 40
0.000000000
  9
$TDUUPDATE
 40
0.000000000
  9
$TDINDWG
 40
0.0000000000
  9
$TDUSRTIMER
 40
0.0000000000
  9
$USRTIMER
 70
           1
  9
$ANGBASE
 50
0.0
  9
$ANGDIR
 70
           1
  9
$PDMODE
 70
           0
  9
$PDSIZE
 40
0.0
  9
$PLINEWID
 40
0.0
  9
$SPLFRAME
 70
           0
  9
$SPLINETYPE
 70
           5
  9
$SPLINESEGS
 70
          20
  9
$HANDSEED
  5
4CF
  9
$SURFTAB1
 70
           6
  9
$SURFTAB2
 70
           6
  9
$SURFTYPE
 70
           6
  9
$SURFU
 70
           6
  9
$SURFV
 70
           6
  9
$UCSBASE
  2

  9
$UCSNAME
  2

  9
$UCSORG
 10
0.0
 20
0.0
 30
0.0
  9
$UCSXDIR
 10
1.0
 20
0.0
 30
0.0
  9
$UCSYDIR
 10
0.0
 20
1.0
 30
0.0
  9
$UCSORTHOREF
  2

  9
$UCSORTHOVIEW
 70
           0
  9
$UCSORGTOP
 10
0.0
 20
0.0
 30
0.0
  9
$UCSORGBOTTOM
 10
0.0
 20
0.0
 30
0.0
  9
$UCSORGLEFT
 10
0.0
 20
0.0
 30
0.0
  9
$UCSORGRIGHT
 10
0.0
 20
0.0
 30
0.0
  9
$UCSORGFRONT
 10
0.0
 20
0.0
 30
0.0
  9
$UCSORGBACK
 10
0.0
 20
0.0
 30
0.0
  9
$PUCSBASE
  2

  9
$PUCSNAME
  2

  9
$PUCSORG
 10
0.0
 20
0.0
 30
0.0
  9
$PUCSXDIR
 10
1.0
 20
0.0
 30
0.0
  9
$PUCSYDIR
 10
0.0
 20
1.0
 30
0.0
  9
$PUCSORTHOREF
  2

  9
$PUCSORTHOVIEW
 70
           0
  9
$PUCSORGTOP
 10
0.0
 20
0.0
 30
0.0
  9
$PUCSORGBOTTOM
 10
0.0
 20
0.0
 30
0.0
  9
$PUCSORGLEFT
 10
0.0
 20
0.0
 30
0.0
  9
$PUCSORGRIGHT
 10
0.0
 20
0.0
 30
0.0
  9
$PUCSORGFRONT
 10
0.0
 20
0.0
 30
0.0
  9
$PUCSORGBACK
 10
0.0
 20
0.0
 30
0.0
  9
$USERI1
 70
           0
  9
$USERI2
 70
           0
  9
$USERI3
 70
           0
  9
$USERI4
 70
           0
  9
$USERI5
 70
           0
  9
$USERR1
 40
0.0
  9
$USERR2
 40
0.0
  9
$USERR3
 40
0.0
  9
$USERR4
 40
0.0
  9
$USERR5
 40
0.0
  9
$WORLDVIEW
 70
           1
  9
$SHADEDGE
 70
           3
  9
$SHADEDIF
 70
          70
  9
$TILEMODE
 70
           1
  9
$MAXACTVP
 70
          16
  9
$PINSBASE
 10
0.0
 20
0.0
 30
0.0
  9
$PLIMCHECK
 70
           0
  9
$PEXTMIN
 10
0.0
 20
0.0
 30
0.0
  9
$PEXTMAX
 10
0.0
 20
0.0
 30
0.0
  9
$PLIMMIN
 10
0.0
 20
0.0
  9
$PLIMMAX
 10
0.0
 20
0.0
  9
$UNITMODE
 70
           0
  9
$VISRETAIN
 70
           0
  9
$PLINEGEN
 70
           1
  9
$PSLTSCALE
 70
           1
  9
$TREEDEPTH
 70
        3020
  9
$CMLSTYLE
  2
STANDARD
  9
$CMLJUST
 70
           0
  9
$CMLSCALE
 40
1.0
  9
$PROXYGRAPHICS
 70
           0
  9
$MEASUREMENT
 70
           0
  9
$CELWEIGHT
370
           0
  9
$ENDCAPS
280
           0
  9
$JOINSTYLE
280
           0
  9
$LWDISPLAY
290
           0
  9
$INSUNITS
 70
           0
  9
$HYPERLINKBASE
  1

  9
$STYLESHEET
  1

  9
$XEDIT
290
           1
  9
$CEPSNTYPE
380
           0
  9
$PSTYLEMODE
290
           1
  9
$FINGERPRINTGUID
  2

  9
$VERSIONGUID
  2

  9
$EXTNAMES
290
           1
  9
$PSVPSCALE
 40
0.0
  0
ENDSEC
  0
SECTION
  2
CLASSES
  0
CLASS
  1
LWPOLYLINE
  2
AcDbPolyline
  3
AutoCAD 2000
 90
        0
280
           0
281
           1
  0
CLASS
  1
IMAGE
  2
AcDbRasterImage
  3
ISM
 90
    32895
280
           0
281
           1
  0
CLASS
  1
OLE2FRAME
  2
AcDbOle2Frame
  3
AutoCAD 2000
 90
    32768
280
           0
281
           1
  0
CLASS
  1
HATCH
  2
AcDbHatch
  3
AutoCAD 2000
 90
        0
280
           0
281
           1
  0
CLASS
  1
DICTIONARYVAR
  2
AcDbDictionaryVar
  3
AutoCAD 2000
 90
    32768
280
           0
281
           0
  0
CLASS
  1
RASTERVARIABLES
  2
AcDbRasterVariables
  3
ISM
 90
    32768
280
           0
281
           0
  0
CLASS
  1
IMAGEDEF
  2
AcDbRasterImageDef
  3
ISM
 90
    32768
280
           0
281
           0
  0
CLASS
  1
IMAGEDEF_REACTOR
  2
AcDbRasterImageDefReactor
  3
ISM
 90
    32769
280
           0
281
           0
  0
CLASS
  1
IDBUFFER
  2
AcDbIdBuffer
  3
AutoCAD 2000
 90
    32768
280
           0
281
           0
  0
CLASS
  1
SPATIAL_FILTER
  2
AcDbSpatialFilter
  3
AutoCAD 2000
 90
    32768
280
           0
281
           0
  0
CLASS
  1
XRECORD
  2
AcDbXrecord
  3
AutoCAD 2000
 90
    32768
280
           0
281
           0
  0
CLASS
  1
SORTENTSTABLE
  2
AcDbSortentsTable
  3
AutoCAD 2000
 90
    32768
280
           0
281
           0
  0
CLASS
  1
LAYER_INDEX
  2
AcDbLayerIndex
  3
AutoCAD 2000
 90
    32768
280
           0
281
           0
  0
CLASS
  1
SPATIAL_INDEX
  2
AcDbSpatialIndex
  3
AutoCAD 2000
 90
    32768
280
           0
281
           0
  0
CLASS
  1
OBJECT_PTR
  2
CAseDLPNTableRecord
  3
"ASE-LPNTableRecord"
 90
    32769
280
           0
281
           0
  0
CLASS
  1
LAYOUT
  2
AcDbLayout
  3
AutoCAD 2000
 90
        0
280
           0
281
           0
  0
CLASS
  1
PLOTSETTINGS
  2
AcDbPlotSettings
  3
AutoCAD 2000
 90
    32768
280
           0
281
           0
  0
CLASS
  1
ACDBDICTIONARYWDFLT
  2
AcDbDictionaryWithDefault
  3
AutoCAD 2000
 90
        0
280
           0
281
           0
  0
CLASS
  1
ACDBPLACEHOLDER
  2
AcDbPlaceHolder
  3
AutoCAD 2000
 90
        0
280
           0
281
           0
  0
ENDSEC
  0
SECTION
  2
TABLES
  0
TABLE
  2
VPORT
  5
7
100
AcDbSymbolTable
 70
           1
  0
VPORT
  5
15
100
AcDbSymbolTableRecord
100
AcDbViewportTableRecord
  2
*ACTIVE
 70
           0
 10
0.0
 20
0.0
 11
1.0
 21
1.0
 12
0.0
 22
0.0
 13
0.0
 23
0.0
 14
5.0
 24
5.0
 15
5.0
 25
5.0
 16
0.0
 26
0.0
 36
1.0
 17
492.540023130496
 27
-64.750288281333
 37
10.0
 40
200.432125368902
 41
2.228406909789
 42
50.0
 43
0.0
 44
0.0
 50
0.0
 51
0.0
 71
           0
 72
         100
 73
           1
 74
           1
 75
           0
 76
           1
 77
           0
 78
           0
281
           0
 65
           0
110
0.0
120
0.0
130
0.0
111
1.0
121
0.0
131
0.0
112
0.0
122
1.0
132
0.0
345
0
346
0
 79
           0
146
0.0
  0
ENDTAB
  0
TABLE
  2
LTYPE
  5
4
100
AcDbSymbolTable
 70
          15
  0
LTYPE
  5
11
100
AcDbSymbolTableRecord
100
AcDbLinetypeTableRecord
  2
ByBlock
 70
          64
  3

 72
          65
 73
           0
 40
0.0
  0
LTYPE
  5
12
100
AcDbSymbolTableRecord
100
AcDbLinetypeTableRecord
  2
ByLayer
 70
          64
  3

 72
          65
 73
           0
 40
0.0
  0
LTYPE
  5
13
100
AcDbSymbolTableRecord
100
AcDbLinetypeTableRecord
  2
Continuous
 70
          64
  3
Solid line
 72
          65
 73
           0
 40
0.0
  0
LTYPE
  5
24
100
AcDbSymbolTableRecord
100
AcDbLinetypeTableRecord
  2
BORDER
 70
           0
  3
BORDER
 72
          65
 73
           6
 40
1.75
 49
0.5
 74
           0
 49
-0.25
 74
           0
 49
0.5
 74
           0
 49
-0.25
 74
           0
 49
0.0
 74
           0
 49
-0.25
 74
           0
  0
LTYPE
  5
25
100
AcDbSymbolTableRecord
100
AcDbLinetypeTableRecord
  2
CENTER
 70
           0
  3
CENTER
 72
          65
 73
           4
 40
2.0
 49
1.25
 74
           0
 49
-0.25
 74
           0
 49
0.25
 74
           0
 49
-0.25
 74
           0
  0
LTYPE
  5
26
100
AcDbSymbolTableRecord
100
AcDbLinetypeTableRecord
  2
DASHDOT
 70
           0
  3
DASHDOT
 72
          65
 73
           4
 40
1.0
 49
0.5
 74
           0
 49
-0.25
 74
           0
 49
0.0
 74
           0
 49
-0.25
 74
           0
  0
LTYPE
  5
27
100
AcDbSymbolTableRecord
100
AcDbLinetypeTableRecord
  2
DASHED
 70
           0
  3
DASHED
 72
          65
 73
           2
 40
0.75
 49
0.5
 74
           0
 49
-0.25
 74
           0
  0
LTYPE
  5
28
100
AcDbSymbolTableRecord
100
AcDbLinetypeTableRecord
  2
DIVIDE
 70
           0
  3
DIVIDE
 72
          65
 73
           6
 40
1.25
 49
0.5
 74
           0
 49
-0.25
 74
           0
 49
0.0
 74
           0
 49
-0.25
 74
           0
 49
0.0
 74
           0
 49
-0.25
 74
           0
  0
LTYPE
  5
29
100
AcDbSymbolTableRecord
100
AcDbLinetypeTableRecord
  2
DOT
 70
           0
  3
DOT
 72
          65
 73
           2
 40
0.25
 49
0.0
 74
           0
 49
-0.25
 74
           0
  0
LTYPE
  5
2A
100
AcDbSymbolTableRecord
100
AcDbLinetypeTableRecord
  2
HIDDEN
 70
           0
  3
HIDDEN
 72
          65
 73
           2
 40
0.375
 49
0.25
 74
           0
 49
-0.125
 74
           0
  0
LTYPE
  5
2B
100
AcDbSymbolTableRecord
100
AcDbLinetypeTableRecord
  2
PHANTOM
 70
           0
  3
PHANTOM
 72
          65
 73
           6
 40
2.5
 49
1.25
 74
           0
 49
-0.25
 74
           0
 49
0.25
 74
           0
 49
-0.25
 74
           0
 49
0.25
 74
           0
 49
-0.25
 74
           0
  0
LTYPE
  5
2C
100
AcDbSymbolTableRecord
100
AcDbLinetypeTableRecord
  2
$INVISIBLE
 70
           0
  3
$INVISIBLE
 72
          65
 73
           2
 40
200.0
 49
-100.0
 74
           0
 49
-100.0
 74
           0
  0
LTYPE
  5
2D
100
AcDbSymbolTableRecord
100
AcDbLinetypeTableRecord
  2
$AUXILIARY
 70
           0
  3
$AUXILIARY
 72
          65
 73
           2
 40
0.1
 49
0.05
 74
           0
 49
-0.05
 74
           0
  0
LTYPE
  5
2E
100
AcDbSymbolTableRecord
100
AcDbLinetypeTableRecord
  2
$CONSTRUCTION
 70
           0
  3
$CONSTRUCTION
 72
          65
 73
           4
 40
0.3
 49
0.2
 74
           0
 49
-0.05
 74
           0
 49
0.0
 74
           0
 49
-0.05
 74
           0
  0
LTYPE
  5
2F
100
AcDbSymbolTableRecord
100
AcDbLinetypeTableRecord
  2
$SNAPEXT
 70
           0
  3
$SNAPEXT
 72
          65
 73
           2
 40
0.04
 49
0.02
 74
           0
 49
-0.02
 74
           0
  0
ENDTAB
  0
TABLE
  2
LAYER
  5
2
100
AcDbSymbolTable
 70
           7
  0
LAYER
  5
14
100
AcDbSymbolTableRecord
100
AcDbLayerTableRecord
  2
0
 70
           0
 62
           7
  6
Continuous
290
           1
370
           0
390
0
1001
TCAD
1000
TCW_LAYER_ORDER
1002
{
1071
        0
1002
}
  0
LAYER
  5
30
100
AcDbSymbolTableRecord
100
AcDbLayerTableRecord
  2
4
 70
           0
 62
           3
  6
Continuous
290
           1
370
           0
390
0
1001
TCAD
1000
TCW_LAYER_ORDER
1002
{
1071
        0
1002
}
  0
LAYER
  5
31
100
AcDbSymbolTableRecord
100
AcDbLayerTableRecord
  2
7A
 70
           0
 62
           4
  6
Continuous
290
           1
370
           0
390
0
1001
TCAD
1000
TCW_LAYER_ORDER
1002
{
1071
        0
1002
}
  0
LAYER
  5
32
100
AcDbSymbolTableRecord
100
AcDbLayerTableRecord
  2
0N
 70
           0
 62
           7
  6
Continuous
290
           1
370
           0
390
0
1001
TCAD
1000
TCW_LAYER_ORDER
1002
{
1071
        0
1002
}
  0
LAYER
  5
33
100
AcDbSymbolTableRecord
100
AcDbLayerTableRecord
  2
8
 70
           0
 62
           1
  6
Continuous
290
           1
370
           0
390
0
1001
TCAD
1000
TCW_LAYER_ORDER
1002
{
1071
        0
1002
}
  0
LAYER
  5
34
100
AcDbSymbolTableRecord
100
AcDbLayerTableRecord
  2
4N
 70
           0
 62
           3
  6
Continuous
290
           1
370
           0
390
0
1001
TCAD
1000
TCW_LAYER_ORDER
1002
{
1071
        0
1002
}
  0
LAYER
  5
35
100
AcDbSymbolTableRecord
100
AcDbLayerTableRecord
  2
ASHADE
 70
           0
 62
           7
  6
Continuous
290
           1
370
           0
390
0
1001
TCAD
1000
TCW_LAYER_ORDER
1002
{
1071
        0
1002
}
  0
ENDTAB
  0
TABLE
  2
STYLE
  5
3
100
AcDbSymbolTable
 70
           3
  0
STYLE
  5
17
100
AcDbSymbolTableRecord
100
AcDbTextStyleTableRecord
  2
STANDARD
 70
           0
 40
0.0
 41
1.0
 50
0.0
 71
           0
 42
3.787878990173
  3

  4

1001
ACAD
1000
ＭＳ ゴシック
1071
    32802
  0
STYLE
  5
38
100
AcDbSymbolTableRecord
100
AcDbTextStyleTableRecord
  2
ASHADE
 70
           0
 40
0.20000000298
 41
1.0
 50
0.0
 71
           0
 42
2.5
  3
SIMPLEX.SHX
  4

  0
STYLE
  5
97
100
AcDbSymbolTableRecord
100
AcDbTextStyleTableRecord
  2
_TCW_TXTSTY_1
 70
           0
 40
0.0
 41
1.07
 50
0.0
 71
           0
 42
3.787878990173
  3

  4

1001
ACAD
1000
ＭＳ ゴシック
1071
    32802
  0
ENDTAB
  0
TABLE
  2
VIEW
  5
5
100
AcDbSymbolTable
 70
           2
  0
VIEW
  5
36
100
AcDbSymbolTableRecord
100
AcDbViewTableRecord
  2
表示_0
 70
           0
 40
210.0
 10
148.5
 20
105.0
 41
297.0
 11
0.0
 21
0.0
 31
1.0
 12
0.0
 22
0.0
 32
0.0
 42
45.247172312671
 43
0.0
 44
0.0
 50
0.0
 71
           0
281
           0
 72
           0
110
0.0
120
0.0
130
0.0
111
1.0
121
0.0
131
0.0
112
0.0
122
1.0
132
0.0
  0
VIEW
  5
37
100
AcDbSymbolTableRecord
100
AcDbViewTableRecord
  2
View_0
 70
           0
 40
8.267716
 10
5.846457
 20
4.133858
 41
11.692913
 11
0.0
 21
0.0
 31
1.0
 12
0.0
 22
0.0
 32
0.0
 42
92.090490088637
 43
0.0
 44
0.0
 50
0.0
 71
           0
281
           0
 72
           0
110
0.0
120
0.0
130
0.0
111
1.0
121
0.0
131
0.0
112
0.0
122
1.0
132
0.0
  0
ENDTAB
  0
TABLE
  2
UCS
  5
6
100
AcDbSymbolTable
 70
           0
  0
ENDTAB
  0
TABLE
  2
APPID
  5
8
100
AcDbSymbolTable
 70
           3
  0
APPID
  5
16
100
AcDbSymbolTableRecord
100
AcDbRegAppTableRecord
  2
ACAD
 70
           0
  0
APPID
  5
23
100
AcDbSymbolTableRecord
100
AcDbRegAppTableRecord
  2
TCAD
 70
           0
  0
APPID
  5
3B9
100
AcDbSymbolTableRecord
100
AcDbRegAppTableRecord
  2
AVE_RENDER
 70
           0
  0
ENDTAB
  0
TABLE
  2
DIMSTYLE
  5
9
100
AcDbSymbolTable
 70
           1
100
AcDbDimStyleTable
 71
           0
  0
DIMSTYLE
105
18
100
AcDbSymbolTableRecord
100
AcDbDimStyleTableRecord
  2
STANDARD
 70
           0
  3

  4

 40
1.0
 41
3.0
 42
1.0
 43
7.5
 44
2.0
 45
2.0
 46
0.0
 47
0.0
 48
0.0
 71
           0
 72
           0
 73
           1
 74
           1
 75
           0
 76
           0
 77
           1
 78
           8
 79
           0
140
3.787879
141
0.09
142
0.0
143
25.4
144
1.0
145
0.0
146
1.0
147
2.0
148
0.0000001
170
           0
171
           2
172
           1
173
           0
174
           0
175
           0
176
          45
177
          45
178
          45
179
           4
271
           4
272
           4
273
           2
274
           2
275
           0
276
           0
277
           2
278
          46
279
           0
280
           0
281
           0
282
           0
283
           1
284
           0
285
           0
286
           0
288
           0
340
17
341
0
342
0
343
0
344
0
371
          -2
372
          -2
  0
ENDTAB
  0
TABLE
  2
BLOCK_RECORD
  5
1
100
AcDbSymbolTable
 70
          12
  0
BLOCK_RECORD
  5
A
100
AcDbSymbolTableRecord
100
AcDbBlockTableRecord
  2
*MODEL_SPACE
340
4CD
  0
BLOCK_RECORD
  5
B
100
AcDbSymbolTableRecord
100
AcDbBlockTableRecord
  2
*PAPER_SPACE
340
4CE
  0
BLOCK_RECORD
  5
39
100
AcDbSymbolTableRecord
100
AcDbBlockTableRecord
  2
Block_2
340
0
  0
BLOCK_RECORD
  5
50
100
AcDbSymbolTableRecord
100
AcDbBlockTableRecord
  2
Block_1
340
0
  0
BLOCK_RECORD
  5
67
100
AcDbSymbolTableRecord
100
AcDbBlockTableRecord
  2
_X
340
0
  0
BLOCK_RECORD
  5
7E
100
AcDbSymbolTableRecord
100
AcDbBlockTableRecord
  2
Block_0
340
0
  0
BLOCK_RECORD
  5
180
100
AcDbSymbolTableRecord
100
AcDbBlockTableRecord
  2
*E4
340
0
102
{BLKREFS
331
185
102
}
  0
BLOCK_RECORD
  5
39C
100
AcDbSymbolTableRecord
100
AcDbBlockTableRecord
  2
OVERHEAD
340
0
102
{BLKREFS
331
3BA
331
3C6
331
3D2
331
3DE
331
40A
331
416
102
}
  0
BLOCK_RECORD
  5
3EA
100
AcDbSymbolTableRecord
100
AcDbBlockTableRecord
  2
DIRECT
340
0
102
{BLKREFS
331
3FE
102
}
  0
BLOCK_RECORD
  5
422
100
AcDbSymbolTableRecord
100
AcDbBlockTableRecord
  2
SH_SPOT
340
0
102
{BLKREFS
331
44A
102
}
  0
BLOCK_RECORD
  5
462
100
AcDbSymbolTableRecord
100
AcDbBlockTableRecord
  2
*E8
340
0
102
{BLKREFS
331
467
102
}
  0
BLOCK_RECORD
  5
468
100
AcDbSymbolTableRecord
100
AcDbBlockTableRecord
  2
*E9
340
0
102
{BLKREFS
331
46D
102
}
  0
BLOCK_RECORD
  5
46E
100
AcDbSymbolTableRecord
100
AcDbBlockTableRecord
  2
*E10
340
0
102
{BLKREFS
331
473
102
}
  0
BLOCK_RECORD
  5
474
100
AcDbSymbolTableRecord
100
AcDbBlockTableRecord
  2
*E11
340
0
102
{BLKREFS
331
479
102
}
  0
ENDTAB
  0
ENDSEC
  0
SECTION
  2
BLOCKS
  0
BLOCK
  5
D
100
AcDbEntity
  8
0
100
AcDbBlockBegin
  2
*MODEL_SPACE
 70
           0
 10
0.0
 20
0.0
 30
0.0
  3
*MODEL_SPACE
  1

  0
ENDBLK
  5
E
100
AcDbEntity
  8
0
100
AcDbBlockEnd
  0
BLOCK
  5
F
100
AcDbEntity
 67
           1
  8
0
100
AcDbBlockBegin
  2
*PAPER_SPACE
 70
           0
 10
0.0
 20
0.0
 30
0.0
  3
*PAPER_SPACE
  1

  0
ENDBLK
  5
10
100
AcDbEntity
 67
           1
  8
0
100
AcDbBlockEnd
  0
BLOCK
  5
3A
100
AcDbEntity
  8
0
100
AcDbBlockBegin
  2
Block_2
 70
           0
 10
0.0
 20
0.0
 30
0.0
  3
Block_2
  1

  0
LINE
  5
3B
100
AcDbEntity
  8
0
 62
           0
100
AcDbLine
 10
527.740587
 20
-115.475029
 30
0.0
 11
541.54816
 21
-109.614062
 31
0.0
1001
ACAD
1000
TCW40_DEV_WIDTH
1002
{
1040
-3.0
1002
}
  0
LINE
  5
3C
100
AcDbEntity
  8
0
 62
           0
100
AcDbLine
 10
526.763759
 20
-113.173767
 30
0.0
 11
540.571332
 21
-107.3128
 31
0.0
1001
ACAD
1000
TCW40_DEV_WIDTH
1002
{
1040
-3.0
1002
}
  0
LINE
  5
3D
100
AcDbEntity
  8
0
 62
           0
100
AcDbLine
 10
525.786931
 20
-110.872505
 30
0.0
 11
539.594504
 21
-105.011538
 31
0.0
1001
ACAD
1000
TCW40_DEV_WIDTH
1002
{
1040
-3.0
1002
}
  0
LINE
  5
3E
100
AcDbEntity
  8
0
 62
           0
100
AcDbLine
 10
524.810103
 20
-108.571243
 30
0.0
 11
538.617676
 21
-102.710276
 31
0.0
1001
ACAD
1000
TCW40_DEV_WIDTH
1002
{
1040
-3.0
1002
}
  0
LINE
  5
3F
100
AcDbEntity
  8
0
 62
           0
100
AcDbLine
 10
523.833276
 20
-106.269981
 30
0.0
 11
537.640848
 21
-100.409014
 31
0.0
1001
ACAD
1000
TCW40_DEV_WIDTH
1002
{
1040
-3.0
1002
}
  0
LINE
  5
40
100
AcDbEntity
  8
0
 62
           0
100
AcDbLine
 10
522.856448
 20
-103.968719
 30
0.0
 11
536.664021
 21
-98.107752
 31
0.0
1001
ACAD
1000
TCW40_DEV_WIDTH
1002
{
1040
-3.0
1002
}
  0
LINE
  5
41
100
AcDbEntity
  8
0
 62
           0
100
AcDbLine
 10
521.87962
 20
-101.667457
 30
0.0
 11
535.687193
 21
-95.80649
 31
0.0
1001
ACAD
1000
TCW40_DEV_WIDTH
1002
{
1040
-3.0
1002
}
  0
LINE
  5
42
100
AcDbEntity
  8
0
 62
           0
100
AcDbLine
 10
520.902792
 20
-99.366194
 30
0.0
 11
534.710365
 21
-93.505227
 31
0.0
1001
ACAD
1000
TCW40_DEV_WIDTH
1002
{
1040
-3.0
1002
}
  0
LINE
  5
43
100
AcDbEntity
  8
0
 62
           0
100
AcDbLine
 10
519.925964
 20
-97.064932
 30
0.0
 11
533.733537
 21
-91.203965
 31
0.0
1001
ACAD
1000
TCW40_DEV_WIDTH
1002
{
1040
-3.0
1002
}
  0
LINE
  5
44
100
AcDbEntity
  8
0
 62
           0
100
AcDbLine
 10
518.949136
 20
-94.76367
 30
0.0
 11
532.756709
 21
-88.902703
 31
0.0
1001
ACAD
1000
TCW40_DEV_WIDTH
1002
{
1040
-3.0
1002
}
  0
LINE
  5
45
100
AcDbEntity
  8
0
 62
           0
100
AcDbLine
 10
528.717415
 20
-117.776291
 30
0.0
 11
542.524987
 21
-111.915325
 31
0.0
1001
ACAD
1000
TCW40_DEV_WIDTH
1002
{
1040
-3.0
1002
}
  0
LINE
  5
46
100
AcDbEntity
  8
0
 62
           0
100
AcDbLine
 10
529.694242
 20
-120.077554
 30
0.0
 11
543.501815
 21
-114.216587
 31
0.0
1001
ACAD
1000
TCW40_DEV_WIDTH
1002
{
1040
-3.0
1002
}
  0
LINE
  5
47
100
AcDbEntity
  8
0
 62
           0
100
AcDbLine
 10
530.67107
 20
-122.378816
 30
0.0
 11
544.478643
 21
-116.517849
 31
0.0
1001
ACAD
1000
TCW40_DEV_WIDTH
1002
{
1040
-3.0
1002
}
  0
LINE
  5
48
100
AcDbEntity
  8
0
 62
           0
100
AcDbLine
 10
531.647898
 20
-124.680078
 30
0.0
 11
545.455471
 21
-118.819111
 31
0.0
1001
ACAD
1000
TCW40_DEV_WIDTH
1002
{
1040
-3.0
1002
}
  0
LINE
  5
49
100
AcDbEntity
  8
0
 62
           0
100
AcDbLine
 10
532.624726
 20
-126.98134
 30
0.0
 11
546.432299
 21
-121.120373
 31
0.0
1001
ACAD
1000
TCW40_DEV_WIDTH
1002
{
1040
-3.0
1002
}
  0
LINE
  5
4A
100
AcDbEntity
  8
0
 62
           0
100
AcDbLine
 10
533.601554
 20
-129.282602
 30
0.0
 11
547.409127
 21
-123.421635
 31
0.0
1001
ACAD
1000
TCW40_DEV_WIDTH
1002
{
1040
-3.0
1002
}
  0
LINE
  5
4B
100
AcDbEntity
  8
0
 62
           0
100
AcDbLine
 10
534.578382
 20
-131.583864
 30
0.0
 11
548.385954
 21
-125.722897
 31
0.0
1001
ACAD
1000
TCW40_DEV_WIDTH
1002
{
1040
-3.0
1002
}
  0
LINE
  5
4C
100
AcDbEntity
  8
0
 62
           0
100
AcDbLine
 10
535.555209
 20
-133.885126
 30
0.0
 11
549.362782
 21
-128.024159
 31
0.0
1001
ACAD
1000
TCW40_DEV_WIDTH
1002
{
1040
-3.0
1002
}
  0
LINE
  5
4D
100
AcDbEntity
  8
0
 62
           0
100
AcDbLine
 10
536.532037
 20
-136.186389
 30
0.0
 11
550.33961
 21
-130.325422
 31
0.0
1001
ACAD
1000
TCW40_DEV_WIDTH
1002
{
1040
-3.0
1002
}
  0
LINE
  5
4E
100
AcDbEntity
  8
0
 62
           0
100
AcDbLine
 10
537.508865
 20
-138.487651
 30
0.0
 11
551.316438
 21
-132.626684
 31
0.0
1001
ACAD
1000
TCW40_DEV_WIDTH
1002
{
1040
-3.0
1002
}
  0
ENDBLK
  5
4F
100
AcDbEntity
  8
0
100
AcDbBlockEnd
  0
BLOCK
  5
51
100
AcDbEntity
  8
0
100
AcDbBlockBegin
  2
Block_1
 70
           0
 10
0.0
 20
0.0
 30
0.0
  3
Block_1
  1

  0
LINE
  5
52
100
AcDbEntity
  8
0
 62
           0
100
AcDbLine
 10
527.740587
 20
-115.475029
 30
0.0
 11
541.54816
 21
-109.614062
 31
0.0
1001
ACAD
1000
TCW40_DEV_WIDTH
1002
{
1040
-3.0
1002
}
  0
LINE
  5
53
100
AcDbEntity
  8
0
 62
           0
100
AcDbLine
 10
526.763759
 20
-113.173767
 30
0.0
 11
540.571332
 21
-107.3128
 31
0.0
1001
ACAD
1000
TCW40_DEV_WIDTH
1002
{
1040
-3.0
1002
}
  0
LINE
  5
54
100
AcDbEntity
  8
0
 62
           0
100
AcDbLine
 10
525.786931
 20
-110.872505
 30
0.0
 11
539.594504
 21
-105.011538
 31
0.0
1001
ACAD
1000
TCW40_DEV_WIDTH
1002
{
1040
-3.0
1002
}
  0
LINE
  5
55
100
AcDbEntity
  8
0
 62
           0
100
AcDbLine
 10
524.810103
 20
-108.571243
 30
0.0
 11
538.617676
 21
-102.710276
 31
0.0
1001
ACAD
1000
TCW40_DEV_WIDTH
1002
{
1040
-3.0
1002
}
  0
LINE
  5
56
100
AcDbEntity
  8
0
 62
           0
100
AcDbLine
 10
523.833276
 20
-106.269981
 30
0.0
 11
537.640848
 21
-100.409014
 31
0.0
1001
ACAD
1000
TCW40_DEV_WIDTH
1002
{
1040
-3.0
1002
}
  0
LINE
  5
57
100
AcDbEntity
  8
0
 62
           0
100
AcDbLine
 10
522.856448
 20
-103.968719
 30
0.0
 11
536.664021
 21
-98.107752
 31
0.0
1001
ACAD
1000
TCW40_DEV_WIDTH
1002
{
1040
-3.0
1002
}
  0
LINE
  5
58
100
AcDbEntity
  8
0
 62
           0
100
AcDbLine
 10
521.87962
 20
-101.667457
 30
0.0
 11
535.687193
 21
-95.80649
 31
0.0
1001
ACAD
1000
TCW40_DEV_WIDTH
1002
{
1040
-3.0
1002
}
  0
LINE
  5
59
100
AcDbEntity
  8
0
 62
           0
100
AcDbLine
 10
520.902792
 20
-99.366194
 30
0.0
 11
534.710365
 21
-93.505227
 31
0.0
1001
ACAD
1000
TCW40_DEV_WIDTH
1002
{
1040
-3.0
1002
}
  0
LINE
  5
5A
100
AcDbEntity
  8
0
 62
           0
100
AcDbLine
 10
519.925964
 20
-97.064932
 30
0.0
 11
533.733537
 21
-91.203965
 31
0.0
1001
ACAD
1000
TCW40_DEV_WIDTH
1002
{
1040
-3.0
1002
}
  0
LINE
  5
5B
100
AcDbEntity
  8
0
 62
           0
100
AcDbLine
 10
518.949136
 20
-94.76367
 30
0.0
 11
532.756709
 21
-88.902703
 31
0.0
1001
ACAD
1000
TCW40_DEV_WIDTH
1002
{
1040
-3.0
1002
}
  0
LINE
  5
5C
100
AcDbEntity
  8
0
 62
           0
100
AcDbLine
 10
528.717415
 20
-117.776291
 30
0.0
 11
542.524987
 21
-111.915325
 31
0.0
1001
ACAD
1000
TCW40_DEV_WIDTH
1002
{
1040
-3.0
1002
}
  0
LINE
  5
5D
100
AcDbEntity
  8
0
 62
           0
100
AcDbLine
 10
529.694242
 20
-120.077554
 30
0.0
 11
543.501815
 21
-114.216587
 31
0.0
1001
ACAD
1000
TCW40_DEV_WIDTH
1002
{
1040
-3.0
1002
}
  0
LINE
  5
5E
100
AcDbEntity
  8
0
 62
           0
100
AcDbLine
 10
530.67107
 20
-122.378816
 30
0.0
 11
544.478643
 21
-116.517849
 31
0.0
1001
ACAD
1000
TCW40_DEV_WIDTH
1002
{
1040
-3.0
1002
}
  0
LINE
  5
5F
100
AcDbEntity
  8
0
 62
           0
100
AcDbLine
 10
531.647898
 20
-124.680078
 30
0.0
 11
545.455471
 21
-118.819111
 31
0.0
1001
ACAD
1000
TCW40_DEV_WIDTH
1002
{
1040
-3.0
1002
}
  0
LINE
  5
60
100
AcDbEntity
  8
0
 62
           0
100
AcDbLine
 10
532.624726
 20
-126.98134
 30
0.0
 11
546.432299
 21
-121.120373
 31
0.0
1001
ACAD
1000
TCW40_DEV_WIDTH
1002
{
1040
-3.0
1002
}
  0
LINE
  5
61
100
AcDbEntity
  8
0
 62
           0
100
AcDbLine
 10
533.601554
 20
-129.282602
 30
0.0
 11
547.409127
 21
-123.421635
 31
0.0
1001
ACAD
1000
TCW40_DEV_WIDTH
1002
{
1040
-3.0
1002
}
  0
LINE
  5
62
100
AcDbEntity
  8
0
 62
           0
100
AcDbLine
 10
534.578382
 20
-131.583864
 30
0.0
 11
548.385954
 21
-125.722897
 31
0.0
1001
ACAD
1000
TCW40_DEV_WIDTH
1002
{
1040
-3.0
1002
}
  0
LINE
  5
63
100
AcDbEntity
  8
0
 62
           0
100
AcDbLine
 10
535.555209
 20
-133.885126
 30
0.0
 11
549.362782
 21
-128.024159
 31
0.0
1001
ACAD
1000
TCW40_DEV_WIDTH
1002
{
1040
-3.0
1002
}
  0
LINE
  5
64
100
AcDbEntity
  8
0
 62
           0
100
AcDbLine
 10
536.532037
 20
-136.186389
 30
0.0
 11
550.33961
 21
-130.325422
 31
0.0
1001
ACAD
1000
TCW40_DEV_WIDTH
1002
{
1040
-3.0
1002
}
  0
LINE
  5
65
100
AcDbEntity
  8
0
 62
           0
100
AcDbLine
 10
537.508865
 20
-138.487651
 30
0.0
 11
551.316438
 21
-132.626684
 31
0.0
1001
ACAD
1000
TCW40_DEV_WIDTH
1002
{
1040
-3.0
1002
}
  0
ENDBLK
  5
66
100
AcDbEntity
  8
0
100
AcDbBlockEnd
  0
BLOCK
  5
68
100
AcDbEntity
  8
0
100
AcDbBlockBegin
  2
_X
 70
           0
 10
0.0
 20
0.0
 30
0.0
  3
_X
  1

  0
LINE
  5
69
100
AcDbEntity
  8
0
 62
           0
100
AcDbLine
 10
527.740587
 20
-115.475029
 30
0.0
 11
541.54816
 21
-109.614062
 31
0.0
1001
ACAD
1000
TCW40_DEV_WIDTH
1002
{
1040
-3.0
1002
}
  0
LINE
  5
6A
100
AcDbEntity
  8
0
 62
           0
100
AcDbLine
 10
526.763759
 20
-113.173767
 30
0.0
 11
540.571332
 21
-107.3128
 31
0.0
1001
ACAD
1000
TCW40_DEV_WIDTH
1002
{
1040
-3.0
1002
}
  0
LINE
  5
6B
100
AcDbEntity
  8
0
 62
           0
100
AcDbLine
 10
525.786931
 20
-110.872505
 30
0.0
 11
539.594504
 21
-105.011538
 31
0.0
1001
ACAD
1000
TCW40_DEV_WIDTH
1002
{
1040
-3.0
1002
}
  0
LINE
  5
6C
100
AcDbEntity
  8
0
 62
           0
100
AcDbLine
 10
524.810103
 20
-108.571243
 30
0.0
 11
538.617676
 21
-102.710276
 31
0.0
1001
ACAD
1000
TCW40_DEV_WIDTH
1002
{
1040
-3.0
1002
}
  0
LINE
  5
6D
100
AcDbEntity
  8
0
 62
           0
100
AcDbLine
 10
523.833276
 20
-106.269981
 30
0.0
 11
537.640848
 21
-100.409014
 31
0.0
1001
ACAD
1000
TCW40_DEV_WIDTH
1002
{
1040
-3.0
1002
}
  0
LINE
  5
6E
100
AcDbEntity
  8
0
 62
           0
100
AcDbLine
 10
522.856448
 20
-103.968719
 30
0.0
 11
536.664021
 21
-98.107752
 31
0.0
1001
ACAD
1000
TCW40_DEV_WIDTH
1002
{
1040
-3.0
1002
}
  0
LINE
  5
6F
100
AcDbEntity
  8
0
 62
           0
100
AcDbLine
 10
521.87962
 20
-101.667457
 30
0.0
 11
535.687193
 21
-95.80649
 31
0.0
1001
ACAD
1000
TCW40_DEV_WIDTH
1002
{
1040
-3.0
1002
}
  0
LINE
  5
70
100
AcDbEntity
  8
0
 62
           0
100
AcDbLine
 10
520.902792
 20
-99.366194
 30
0.0
 11
534.710365
 21
-93.505227
 31
0.0
1001
ACAD
1000
TCW40_DEV_WIDTH
1002
{
1040
-3.0
1002
}
  0
LINE
  5
71
100
AcDbEntity
  8
0
 62
           0
100
AcDbLine
 10
519.925964
 20
-97.064932
 30
0.0
 11
533.733537
 21
-91.203965
 31
0.0
1001
ACAD
1000
TCW40_DEV_WIDTH
1002
{
1040
-3.0
1002
}
  0
LINE
  5
72
100
AcDbEntity
  8
0
 62
           0
100
AcDbLine
 10
518.949136
 20
-94.76367
 30
0.0
 11
532.756709
 21
-88.902703
 31
0.0
1001
ACAD
1000
TCW40_DEV_WIDTH
1002
{
1040
-3.0
1002
}
  0
LINE
  5
73
100
AcDbEntity
  8
0
 62
           0
100
AcDbLine
 10
528.717415
 20
-117.776291
 30
0.0
 11
542.524987
 21
-111.915325
 31
0.0
1001
ACAD
1000
TCW40_DEV_WIDTH
1002
{
1040
-3.0
1002
}
  0
LINE
  5
74
100
AcDbEntity
  8
0
 62
           0
100
AcDbLine
 10
529.694242
 20
-120.077554
 30
0.0
 11
543.501815
 21
-114.216587
 31
0.0
1001
ACAD
1000
TCW40_DEV_WIDTH
1002
{
1040
-3.0
1002
}
  0
LINE
  5
75
100
AcDbEntity
  8
0
 62
           0
100
AcDbLine
 10
530.67107
 20
-122.378816
 30
0.0
 11
544.478643
 21
-116.517849
 31
0.0
1001
ACAD
1000
TCW40_DEV_WIDTH
1002
{
1040
-3.0
1002
}
  0
LINE
  5
76
100
AcDbEntity
  8
0
 62
           0
100
AcDbLine
 10
531.647898
 20
-124.680078
 30
0.0
 11
545.455471
 21
-118.819111
 31
0.0
1001
ACAD
1000
TCW40_DEV_WIDTH
1002
{
1040
-3.0
1002
}
  0
LINE
  5
77
100
AcDbEntity
  8
0
 62
           0
100
AcDbLine
 10
532.624726
 20
-126.98134
 30
0.0
 11
546.432299
 21
-121.120373
 31
0.0
1001
ACAD
1000
TCW40_DEV_WIDTH
1002
{
1040
-3.0
1002
}
  0
LINE
  5
78
100
AcDbEntity
  8
0
 62
           0
100
AcDbLine
 10
533.601554
 20
-129.282602
 30
0.0
 11
547.409127
 21
-123.421635
 31
0.0
1001
ACAD
1000
TCW40_DEV_WIDTH
1002
{
1040
-3.0
1002
}
  0
LINE
  5
79
100
AcDbEntity
  8
0
 62
           0
100
AcDbLine
 10
534.578382
 20
-131.583864
 30
0.0
 11
548.385954
 21
-125.722897
 31
0.0
1001
ACAD
1000
TCW40_DEV_WIDTH
1002
{
1040
-3.0
1002
}
  0
LINE
  5
7A
100
AcDbEntity
  8
0
 62
           0
100
AcDbLine
 10
535.555209
 20
-133.885126
 30
0.0
 11
549.362782
 21
-128.024159
 31
0.0
1001
ACAD
1000
TCW40_DEV_WIDTH
1002
{
1040
-3.0
1002
}
  0
LINE
  5
7B
100
AcDbEntity
  8
0
 62
           0
100
AcDbLine
 10
536.532037
 20
-136.186389
 30
0.0
 11
550.33961
 21
-130.325422
 31
0.0
1001
ACAD
1000
TCW40_DEV_WIDTH
1002
{
1040
-3.0
1002
}
  0
LINE
  5
7C
100
AcDbEntity
  8
0
 62
           0
100
AcDbLine
 10
537.508865
 20
-138.487651
 30
0.0
 11
551.316438
 21
-132.626684
 31
0.0
1001
ACAD
1000
TCW40_DEV_WIDTH
1002
{
1040
-3.0
1002
}
  0
ENDBLK
  5
7D
100
AcDbEntity
  8
0
100
AcDbBlockEnd
  0
BLOCK
  5
7F
100
AcDbEntity
  8
0
100
AcDbBlockBegin
  2
Block_0
 70
           0
 10
0.0
 20
0.0
 30
0.0
  3
Block_0
  1

  0
LINE
  5
80
100
AcDbEntity
  8
0
 62
           0
100
AcDbLine
 10
527.740587
 20
-115.475029
 30
0.0
 11
541.54816
 21
-109.614062
 31
0.0
1001
ACAD
1000
TCW40_DEV_WIDTH
1002
{
1040
-3.0
1002
}
  0
LINE
  5
81
100
AcDbEntity
  8
0
 62
           0
100
AcDbLine
 10
526.763759
 20
-113.173767
 30
0.0
 11
540.571332
 21
-107.3128
 31
0.0
1001
ACAD
1000
TCW40_DEV_WIDTH
1002
{
1040
-3.0
1002
}
  0
LINE
  5
82
100
AcDbEntity
  8
0
 62
           0
100
AcDbLine
 10
525.786931
 20
-110.872505
 30
0.0
 11
539.594504
 21
-105.011538
 31
0.0
1001
ACAD
1000
TCW40_DEV_WIDTH
1002
{
1040
-3.0
1002
}
  0
LINE
  5
83
100
AcDbEntity
  8
0
 62
           0
100
AcDbLine
 10
524.810103
 20
-108.571243
 30
0.0
 11
538.617676
 21
-102.710276
 31
0.0
1001
ACAD
1000
TCW40_DEV_WIDTH
1002
{
1040
-3.0
1002
}
  0
LINE
  5
84
100
AcDbEntity
  8
0
 62
           0
100
AcDbLine
 10
523.833276
 20
-106.269981
 30
0.0
 11
537.640848
 21
-100.409014
 31
0.0
1001
ACAD
1000
TCW40_DEV_WIDTH
1002
{
1040
-3.0
1002
}
  0
LINE
  5
85
100
AcDbEntity
  8
0
 62
           0
100
AcDbLine
 10
522.856448
 20
-103.968719
 30
0.0
 11
536.664021
 21
-98.107752
 31
0.0
1001
ACAD
1000
TCW40_DEV_WIDTH
1002
{
1040
-3.0
1002
}
  0
LINE
  5
86
100
AcDbEntity
  8
0
 62
           0
100
AcDbLine
 10
521.87962
 20
-101.667457
 30
0.0
 11
535.687193
 21
-95.80649
 31
0.0
1001
ACAD
1000
TCW40_DEV_WIDTH
1002
{
1040
-3.0
1002
}
  0
LINE
  5
87
100
AcDbEntity
  8
0
 62
           0
100
AcDbLine
 10
520.902792
 20
-99.366194
 30
0.0
 11
534.710365
 21
-93.505227
 31
0.0
1001
ACAD
1000
TCW40_DEV_WIDTH
1002
{
1040
-3.0
1002
}
  0
LINE
  5
88
100
AcDbEntity
  8
0
 62
           0
100
AcDbLine
 10
519.925964
 20
-97.064932
 30
0.0
 11
533.733537
 21
-91.203965
 31
0.0
1001
ACAD
1000
TCW40_DEV_WIDTH
1002
{
1040
-3.0
1002
}
  0
LINE
  5
89
100
AcDbEntity
  8
0
 62
           0
100
AcDbLine
 10
518.949136
 20
-94.76367
 30
0.0
 11
532.756709
 21
-88.902703
 31
0.0
1001
ACAD
1000
TCW40_DEV_WIDTH
1002
{
1040
-3.0
1002
}
  0
LINE
  5
8A
100
AcDbEntity
  8
0
 62
           0
100
AcDbLine
 10
528.717415
 20
-117.776291
 30
0.0
 11
542.524987
 21
-111.915325
 31
0.0
1001
ACAD
1000
TCW40_DEV_WIDTH
1002
{
1040
-3.0
1002
}
  0
LINE
  5
8B
100
AcDbEntity
  8
0
 62
           0
100
AcDbLine
 10
529.694242
 20
-120.077554
 30
0.0
 11
543.501815
 21
-114.216587
 31
0.0
1001
ACAD
1000
TCW40_DEV_WIDTH
1002
{
1040
-3.0
1002
}
  0
LINE
  5
8C
100
AcDbEntity
  8
0
 62
           0
100
AcDbLine
 10
530.67107
 20
-122.378816
 30
0.0
 11
544.478643
 21
-116.517849
 31
0.0
1001
ACAD
1000
TCW40_DEV_WIDTH
1002
{
1040
-3.0
1002
}
  0
LINE
  5
8D
100
AcDbEntity
  8
0
 62
           0
100
AcDbLine
 10
531.647898
 20
-124.680078
 30
0.0
 11
545.455471
 21
-118.819111
 31
0.0
1001
ACAD
1000
TCW40_DEV_WIDTH
1002
{
1040
-3.0
1002
}
  0
LINE
  5
8E
100
AcDbEntity
  8
0
 62
           0
100
AcDbLine
 10
532.624726
 20
-126.98134
 30
0.0
 11
546.432299
 21
-121.120373
 31
0.0
1001
ACAD
1000
TCW40_DEV_WIDTH
1002
{
1040
-3.0
1002
}
  0
LINE
  5
8F
100
AcDbEntity
  8
0
 62
           0
100
AcDbLine
 10
533.601554
 20
-129.282602
 30
0.0
 11
547.409127
 21
-123.421635
 31
0.0
1001
ACAD
1000
TCW40_DEV_WIDTH
1002
{
1040
-3.0
1002
}
  0
LINE
  5
90
100
AcDbEntity
  8
0
 62
           0
100
AcDbLine
 10
534.578382
 20
-131.583864
 30
0.0
 11
548.385954
 21
-125.722897
 31
0.0
1001
ACAD
1000
TCW40_DEV_WIDTH
1002
{
1040
-3.0
1002
}
  0
LINE
  5
91
100
AcDbEntity
  8
0
 62
           0
100
AcDbLine
 10
535.555209
 20
-133.885126
 30
0.0
 11
549.362782
 21
-128.024159
 31
0.0
1001
ACAD
1000
TCW40_DEV_WIDTH
1002
{
1040
-3.0
1002
}
  0
LINE
  5
92
100
AcDbEntity
  8
0
 62
           0
100
AcDbLine
 10
536.532037
 20
-136.186389
 30
0.0
 11
550.33961
 21
-130.325422
 31
0.0
1001
ACAD
1000
TCW40_DEV_WIDTH
1002
{
1040
-3.0
1002
}
  0
LINE
  5
93
100
AcDbEntity
  8
0
 62
           0
100
AcDbLine
 10
537.508865
 20
-138.487651
 30
0.0
 11
551.316438
 21
-132.626684
 31
0.0
1001
ACAD
1000
TCW40_DEV_WIDTH
1002
{
1040
-3.0
1002
}
  0
ENDBLK
  5
94
100
AcDbEntity
  8
0
100
AcDbBlockEnd
  0
BLOCK
  5
181
100
AcDbEntity
  8
0
100
AcDbBlockBegin
  2
*E4
 70
           1
 10
0.0
 20
0.0
 30
0.0
  3
*E4
  1

  0
LWPOLYLINE
  5
182
100
AcDbEntity
  8
0
370
           0
  6
Continuous
 62
           7
100
AcDbPolyline
 90
        4
 70
           0
 10
432.138912
 20
-52.573553
 10
432.138912
 20
-49.936679070994
 10
434.247319
 20
-45.526913070994
 10
434.247319
 20
-44.598445
  0
LWPOLYLINE
  5
183
100
AcDbEntity
  8
0
370
           0
  6
Continuous
 62
           7
100
AcDbPolyline
 90
        4
 70
           0
 10
434.747319
 20
-44.598445
 40
0.0
 41
0.0
 10
434.747319
 20
-45.640296929006
 40
0.0
 41
0.0
 10
432.638912
 20
-50.050062929006
 40
0.0
 41
0.0
 10
432.638912
 20
-52.573553
 40
0.0
 41
0.0
  0
ENDBLK
  5
184
100
AcDbEntity
  8
0
100
AcDbBlockEnd
  0
BLOCK
  5
39D
100
AcDbEntity
  8
0
100
AcDbBlockBegin
  2
OVERHEAD
 70
           2
 10
0.0
 20
0.0
 30
0.0
  3
OVERHEAD
  1

  0
ATTDEF
  5
39E
100
AcDbEntity
  8
ASHADE
  6
Continuous
 62
           1
100
AcDbText
 10
0.0
 20
-0.1
 30
0.0
 40
0.2
  1

  7
ASHADE
 72
           1
 11
0.0
 21
-0.1
 31
0.0
100
AcDbAttributeDefinition
  3
Light Name
  2
SNAME
 70
           0
  0
ATTDEF
  5
39F
100
AcDbEntity
  8
ASHADE
  6
Continuous
 62
           7
100
AcDbText
 10
0.0
 20
0.28
 30
0.0
 40
0.01
  1

100
AcDbAttributeDefinition
  3

  2
GNAME
 70
           1
  0
ATTDEF
  5
3A0
100
AcDbEntity
  8
ASHADE
  6
Continuous
 62
           7
100
AcDbText
 10
0.0
 20
0.265
 30
0.0
 40
0.01
  1

100
AcDbAttributeDefinition
  3
Look-at X
  2
LAX
 70
           1
  0
ATTDEF
  5
3A1
100
AcDbEntity
  8
ASHADE
  6
Continuous
 62
           7
100
AcDbText
 10
0.0
 20
0.25
 30
0.0
 40
0.01
  1

100
AcDbAttributeDefinition
  3
Look-at Y
  2
LAY
 70
           1
  0
ATTDEF
  5
3A2
100
AcDbEntity
  8
ASHADE
  6
Continuous
 62
           7
100
AcDbText
 10
0.0
 20
0.235
 30
0.0
 40
0.01
  1

100
AcDbAttributeDefinition
  3
Look-at Z
  2
LAZ
 70
           1
  0
ATTDEF
  5
3A3
100
AcDbEntity
  8
ASHADE
  6
Continuous
 62
           7
100
AcDbText
 10
0.0
 20
0.22
 30
0.0
 40
0.01
  1
1
100
AcDbAttributeDefinition
  3
Light Intensity
  2
INTENSITY
 70
           1
  0
ATTDEF
  5
3A4
100
AcDbEntity
  8
ASHADE
  6
Continuous
 62
           7
100
AcDbText
 10
0.0
 20
0.205
 30
0.0
 40
0.01
  1
1,1,1
100
AcDbAttributeDefinition
  3
Light Color (RGB)
  2
COLOR
 70
           1
  0
ATTDEF
  5
3A5
100
AcDbEntity
  8
ASHADE
  6
Continuous
 62
           7
100
AcDbText
 10
0.0
 20
0.19
 30
0.0
 40
0.01
  1
0
100
AcDbAttributeDefinition
  3
Depth Map Size
  2
CONEA
 70
           1
  0
ATTDEF
  5
3A6
100
AcDbEntity
  8
ASHADE
  6
Continuous
 62
           7
100
AcDbText
 10
0.0
 20
0.175
 30
0.0
 40
0.01
  1
-1
100
AcDbAttributeDefinition
  3
*not used*
  2
CONED
 70
           1
  0
ATTDEF
  5
3A7
100
AcDbEntity
  8
ASHADE
  6
Continuous
 62
           7
100
AcDbText
 10
0.0
 20
0.16
 30
0.0
 40
0.01
  1
-1
100
AcDbAttributeDefinition
  3
*not used*
  2
BEAMD
 70
           1
  0
ARC
  5
3A8
100
AcDbEntity
  8
ASHADE
  6
Continuous
 62
           7
100
AcDbCircle
 10
0.0
 20
0.0
 30
0.0
 40
0.3
100
AcDbArc
 50
205.679289
 51
334.320711
  0
ARC
  5
3A9
100
AcDbEntity
  8
ASHADE
  6
Continuous
 62
           7
100
AcDbCircle
 10
0.0
 20
0.0
 30
0.0
 40
0.3
100
AcDbArc
 50
25.679289
 51
154.320711
  0
LINE
  5
3AA
100
AcDbEntity
  8
ASHADE
  6
Continuous
 62
           7
100
AcDbLine
 10
-0.27037
 20
-0.13
 30
0.0
 11
-0.315432
 21
-0.151667
 31
0.0
  0
LINE
  5
3AB
100
AcDbEntity
  8
ASHADE
  6
Continuous
 62
           7
100
AcDbLine
 10
-0.204141
 20
-0.219832
 30
0.0
 11
-0.272188
 21
-0.29311
 31
0.0
  0
LINE
  5
3AC
100
AcDbEntity
  8
ASHADE
  6
Continuous
 62
           7
100
AcDbLine
 10
-0.109659
 20
-0.27924
 30
0.0
 11
-0.127936
 21
-0.32578
 31
0.0
  0
LINE
  5
3AD
100
AcDbEntity
  8
ASHADE
  6
Continuous
 62
           7
100
AcDbLine
 10
0.0
 20
-0.3
 30
0.0
 11
0.0
 21
-0.4
 31
0.0
  0
LINE
  5
3AE
100
AcDbEntity
  8
ASHADE
  6
Continuous
 62
           7
100
AcDbLine
 10
0.109659
 20
-0.27924
 30
0.0
 11
0.127936
 21
-0.32578
 31
0.0
  0
LINE
  5
3AF
100
AcDbEntity
  8
ASHADE
  6
Continuous
 62
           7
100
AcDbLine
 10
0.204141
 20
-0.219832
 30
0.0
 11
0.272188
 21
-0.29311
 31
0.0
  0
LINE
  5
3B0
100
AcDbEntity
  8
ASHADE
  6
Continuous
 62
           7
100
AcDbLine
 10
0.27037
 20
-0.13
 30
0.0
 11
0.315432
 21
-0.151667
 31
0.0
  0
LINE
  5
3B1
100
AcDbEntity
  8
ASHADE
  6
Continuous
 62
           7
100
AcDbLine
 10
-0.109659
 20
0.27924
 30
0.0
 11
-0.127936
 21
0.32578
 31
0.0
  0
LINE
  5
3B2
100
AcDbEntity
  8
ASHADE
  6
Continuous
 62
           7
100
AcDbLine
 10
-0.204141
 20
0.219832
 30
0.0
 11
-0.272188
 21
0.29311
 31
0.0
  0
LINE
  5
3B3
100
AcDbEntity
  8
ASHADE
  6
Continuous
 62
           7
100
AcDbLine
 10
-0.27037
 20
0.13
 30
0.0
 11
-0.315432
 21
0.151667
 31
0.0
  0
LINE
  5
3B4
100
AcDbEntity
  8
ASHADE
  6
Continuous
 62
           7
100
AcDbLine
 10
0.27037
 20
0.13
 30
0.0
 11
0.315432
 21
0.151667
 31
0.0
  0
LINE
  5
3B5
100
AcDbEntity
  8
ASHADE
  6
Continuous
 62
           7
100
AcDbLine
 10
0.204141
 20
0.219832
 30
0.0
 11
0.272188
 21
0.29311
 31
0.0
  0
LINE
  5
3B6
100
AcDbEntity
  8
ASHADE
  6
Continuous
 62
           7
100
AcDbLine
 10
0.109659
 20
0.27924
 30
0.0
 11
0.127936
 21
0.32578
 31
0.0
  0
LINE
  5
3B7
100
AcDbEntity
  8
ASHADE
  6
Continuous
 62
           7
100
AcDbLine
 10
0.0
 20
0.3
 30
0.0
 11
0.0
 21
0.4
 31
0.0
  0
ENDBLK
  5
3B8
100
AcDbEntity
  8
0
100
AcDbBlockEnd
  0
BLOCK
  5
3EB
100
AcDbEntity
  8
0
100
AcDbBlockBegin
  2
DIRECT
 70
           2
 10
0.0
 20
0.0
 30
0.0
  3
DIRECT
  1

  0
ATTDEF
  5
3EC
100
AcDbEntity
  8
ASHADE
  6
Continuous
 62
           1
100
AcDbText
 10
0.0
 20
-0.1
 30
0.0
 40
0.2
  1

  7
ASHADE
 72
           1
 11
0.0
 21
-0.1
 31
0.0
100
AcDbAttributeDefinition
  3
Light Name
  2
SNAME
 70
           0
  0
ATTDEF
  5
3ED
100
AcDbEntity
  8
ASHADE
  6
Continuous
 62
           7
100
AcDbText
 10
0.0
 20
0.28
 30
0.0
 40
0.01
  1

100
AcDbAttributeDefinition
  3

  2
GNAME
 70
           1
  0
ATTDEF
  5
3EE
100
AcDbEntity
  8
ASHADE
  6
Continuous
 62
           7
100
AcDbText
 10
0.0
 20
0.265
 30
0.0
 40
0.01
  1

100
AcDbAttributeDefinition
  3
Look-at X
  2
LAX
 70
           1
  0
ATTDEF
  5
3EF
100
AcDbEntity
  8
ASHADE
  6
Continuous
 62
           7
100
AcDbText
 10
0.0
 20
0.25
 30
0.0
 40
0.01
  1

100
AcDbAttributeDefinition
  3
Look-at Y
  2
LAY
 70
           1
  0
ATTDEF
  5
3F0
100
AcDbEntity
  8
ASHADE
  6
Continuous
 62
           7
100
AcDbText
 10
0.0
 20
0.235
 30
0.0
 40
0.01
  1

100
AcDbAttributeDefinition
  3
Look-at Z
  2
LAZ
 70
           1
  0
ATTDEF
  5
3F1
100
AcDbEntity
  8
ASHADE
  6
Continuous
 62
           7
100
AcDbText
 10
0.0
 20
0.22
 30
0.0
 40
0.01
  1
1
100
AcDbAttributeDefinition
  3
Light Intensity
  2
INTENSITY
 70
           1
  0
ATTDEF
  5
3F2
100
AcDbEntity
  8
ASHADE
  6
Continuous
 62
           7
100
AcDbText
 10
0.0
 20
0.205
 30
0.0
 40
0.01
  1
1,1,1
100
AcDbAttributeDefinition
  3
Light Color (RGB)
  2
COLOR
 70
           1
  0
ATTDEF
  5
3F3
100
AcDbEntity
  8
ASHADE
  6
Continuous
 62
           7
100
AcDbText
 10
0.0
 20
0.19
 30
0.0
 40
0.01
  1
0
100
AcDbAttributeDefinition
  3
Depth Map Size
  2
CONEA
 70
           1
  0
ATTDEF
  5
3F4
100
AcDbEntity
  8
ASHADE
  6
Continuous
 62
           7
100
AcDbText
 10
0.0
 20
0.175
 30
0.0
 40
0.01
  1
-1
100
AcDbAttributeDefinition
  3
*not used*
  2
CONED
 70
           1
  0
ATTDEF
  5
3F5
100
AcDbEntity
  8
ASHADE
  6
Continuous
 62
           7
100
AcDbText
 10
0.0
 20
0.16
 30
0.0
 40
0.01
  1
-1
100
AcDbAttributeDefinition
  3
*not used*
  2
BEAMD
 70
           1
  0
ARC
  5
3F6
100
AcDbEntity
  8
ASHADE
  6
Continuous
 62
           7
100
AcDbCircle
 10
0.0
 20
0.0
 30
0.0
 40
0.3
100
AcDbArc
 50
205.679289
 51
334.320711
  0
ARC
  5
3F7
100
AcDbEntity
  8
ASHADE
  6
Continuous
 62
           7
100
AcDbCircle
 10
0.0
 20
0.0
 30
0.0
 40
0.3
100
AcDbArc
 50
25.679289
 51
154.320711
  0
LINE
  5
3F8
100
AcDbEntity
  8
ASHADE
  6
Continuous
 62
           7
100
AcDbLine
 10
0.21
 20
0.214243
 30
0.0
 11
0.21
 21
0.5
 31
0.0
  0
LINE
  5
3F9
100
AcDbEntity
  8
ASHADE
  6
Continuous
 62
           7
100
AcDbLine
 10
0.11
 20
0.279106
 30
0.0
 11
0.11
 21
0.5
 31
0.0
  0
LINE
  5
3FA
100
AcDbEntity
  8
ASHADE
  6
Continuous
 62
           7
100
AcDbLine
 10
0.0
 20
0.3
 30
0.0
 11
0.0
 21
0.5
 31
0.0
  0
LINE
  5
3FB
100
AcDbEntity
  8
ASHADE
  6
Continuous
 62
           7
100
AcDbLine
 10
-0.11
 20
0.279106
 30
0.0
 11
-0.11
 21
0.5
 31
0.0
  0
LINE
  5
3FC
100
AcDbEntity
  8
ASHADE
  6
Continuous
 62
           7
100
AcDbLine
 10
-0.21
 20
0.214243
 30
0.0
 11
-0.21
 21
0.5
 31
0.0
  0
ENDBLK
  5
3FD
100
AcDbEntity
  8
0
100
AcDbBlockEnd
  0
BLOCK
  5
423
100
AcDbEntity
  8
0
100
AcDbBlockBegin
  2
SH_SPOT
 70
           2
 10
0.0
 20
0.0
 30
0.0
  3
SH_SPOT
  1

  0
ATTDEF
  5
424
100
AcDbEntity
  8
ASHADE
  6
Continuous
 62
           1
100
AcDbText
 10
0.0
 20
-0.1
 30
0.0
 40
0.2
  1

  7
ASHADE
 72
           1
 11
0.0
 21
-0.1
 31
0.0
100
AcDbAttributeDefinition
  3
Light Name
  2
SNAME
 70
           0
  0
ATTDEF
  5
425
100
AcDbEntity
  8
ASHADE
  6
Continuous
 62
           7
100
AcDbText
 10
0.0
 20
-0.15
 30
0.0
 40
0.01
  1

100
AcDbAttributeDefinition
  3

  2
GNAME
 70
           1
  0
ATTDEF
  5
426
100
AcDbEntity
  8
ASHADE
  6
Continuous
 62
           7
100
AcDbText
 10
0.0
 20
-0.165
 30
0.0
 40
0.01
  1

100
AcDbAttributeDefinition
  3
Look-at X
  2
LAX
 70
           1
  0
ATTDEF
  5
427
100
AcDbEntity
  8
ASHADE
  6
Continuous
 62
           7
100
AcDbText
 10
0.0
 20
-0.18
 30
0.0
 40
0.01
  1

100
AcDbAttributeDefinition
  3
Look-at Y
  2
LAY
 70
           1
  0
ATTDEF
  5
428
100
AcDbEntity
  8
ASHADE
  6
Continuous
 62
           7
100
AcDbText
 10
0.0
 20
-0.195
 30
0.0
 40
0.01
  1

100
AcDbAttributeDefinition
  3
Look-at Z
  2
LAZ
 70
           1
  0
ATTDEF
  5
429
100
AcDbEntity
  8
ASHADE
  6
Continuous
 62
           7
100
AcDbText
 10
0.0
 20
-0.21
 30
0.0
 40
0.01
  1
1
100
AcDbAttributeDefinition
  3
Light Intensity
  2
INTENSITY
 70
           1
  0
ATTDEF
  5
42A
100
AcDbEntity
  8
ASHADE
  6
Continuous
 62
           7
100
AcDbText
 10
0.0
 20
-0.225
 30
0.0
 40
0.01
  1
1,1,1
100
AcDbAttributeDefinition
  3
Light Color (RGB)
  2
COLOR
 70
           1
  0
ATTDEF
  5
42B
100
AcDbEntity
  8
ASHADE
  6
Continuous
 62
           7
100
AcDbText
 10
0.0
 20
-0.24
 30
0.0
 40
0.01
  1
0
100
AcDbAttributeDefinition
  3
Depth Map Size
  2
ZSIZE
 70
           1
  0
ATTDEF
  5
42C
100
AcDbEntity
  8
ASHADE
  6
Continuous
 62
           7
100
AcDbText
 10
0.0
 20
-0.255
 30
0.0
 40
0.01
  1
-1
100
AcDbAttributeDefinition
  3
*not used*
  2
BIASMIN
 70
           1
  0
ATTDEF
  5
42D
100
AcDbEntity
  8
ASHADE
  6
Continuous
 62
           7
100
AcDbText
 10
0.0
 20
-0.27
 30
0.0
 40
0.01
  1
-1
100
AcDbAttributeDefinition
  3
*not used*
  2
BIASMAX
 70
           1
  0
ATTDEF
  5
42E
100
AcDbEntity
  8
ASHADE
  6
Continuous
 62
           7
100
AcDbText
 10
0.0
 20
-0.285
 30
0.0
 40
0.01
  1
10.0
100
AcDbAttributeDefinition
  3
Cone Angle
  2
CONEAN
 70
           1
  0
ATTDEF
  5
42F
100
AcDbEntity
  8
ASHADE
  6
Continuous
 62
           7
100
AcDbText
 10
0.0
 20
-0.3
 30
0.0
 40
0.01
  1
0.0
100
AcDbAttributeDefinition
  3
Cone Delta
  2
CONEDE
 70
           1
  0
ATTDEF
  5
430
100
AcDbEntity
  8
ASHADE
  6
Continuous
 62
           7
100
AcDbText
 10
0.0
 20
-0.315
 30
0.0
 40
0.01
  1
0.0
100
AcDbAttributeDefinition
  3
Beam Distribution
  2
BIAMDI
 70
           1
  0
LINE
  5
431
100
AcDbEntity
  8
ASHADE
  6
Continuous
 62
           7
100
AcDbLine
 10
-0.25
 20
-0.13
 30
0.0
 11
-0.25
 21
-0.34
 31
0.0
  0
LINE
  5
432
100
AcDbEntity
  8
ASHADE
  6
Continuous
 62
           7
100
AcDbLine
 10
-0.25
 20
-0.34
 30
0.0
 11
0.25
 21
-0.34
 31
0.0
  0
LINE
  5
433
100
AcDbEntity
  8
ASHADE
  6
Continuous
 62
           7
100
AcDbLine
 10
0.25
 20
-0.34
 30
0.0
 11
0.25
 21
-0.13
 31
0.0
  0
LINE
  5
434
100
AcDbEntity
  8
ASHADE
  6
Continuous
 62
           7
100
AcDbLine
 10
0.25
 20
0.13
 30
0.0
 11
0.25
 21
0.26
 31
0.0
  0
LINE
  5
435
100
AcDbEntity
  8
ASHADE
  6
Continuous
 62
           7
100
AcDbLine
 10
0.25
 20
0.26
 30
0.0
 11
-0.25
 21
0.26
 31
0.0
  0
LINE
  5
436
100
AcDbEntity
  8
ASHADE
  6
Continuous
 62
           7
100
AcDbLine
 10
-0.25
 20
0.26
 30
0.0
 11
-0.25
 21
0.13
 31
0.0
  0
LINE
  5
437
100
AcDbEntity
  8
ASHADE
  6
Continuous
 62
           7
100
AcDbLine
 10
-0.21
 20
0.26
 30
0.0
 11
-0.301304
 21
0.46
 31
0.0
  0
LINE
  5
438
100
AcDbEntity
  8
ASHADE
  6
Continuous
 62
           7
100
AcDbLine
 10
-0.104545
 20
0.26
 30
0.0
 11
-0.15
 21
0.46
 31
0.0
  0
LINE
  5
439
100
AcDbEntity
  8
ASHADE
  6
Continuous
 62
           7
100
AcDbLine
 10
0.0
 20
0.26
 30
0.0
 11
0.0
 21
0.46
 31
0.0
  0
LINE
  5
43A
100
AcDbEntity
  8
ASHADE
  6
Continuous
 62
           7
100
AcDbLine
 10
0.104545
 20
0.26
 30
0.0
 11
0.15
 21
0.46
 31
0.0
  0
LINE
  5
43B
100
AcDbEntity
  8
ASHADE
  6
Continuous
 62
           7
100
AcDbLine
 10
0.21
 20
0.26
 30
0.0
 11
0.301304
 21
0.46
 31
0.0
  0
LINE
  5
43C
100
AcDbEntity
  8
ASHADE
  6
Continuous
 62
           7
100
AcDbLine
 10
-0.29
 20
-0.18
 30
0.0
 11
-0.29
 21
-0.22
 31
0.0
  0
LINE
  5
43D
100
AcDbEntity
  8
ASHADE
  6
Continuous
 62
           7
100
AcDbLine
 10
0.29
 20
-0.18
 30
0.0
 11
0.29
 21
-0.22
 31
0.0
  0
LINE
  5
43E
100
AcDbEntity
  8
ASHADE
  6
Continuous
 62
           7
100
AcDbLine
 10
0.29
 20
0.22
 30
0.0
 11
0.29
 21
0.18
 31
0.0
  0
LINE
  5
43F
100
AcDbEntity
  8
ASHADE
  6
Continuous
 62
           7
100
AcDbLine
 10
-0.29
 20
0.22
 30
0.0
 11
-0.29
 21
0.18
 31
0.0
  0
LINE
  5
440
100
AcDbEntity
  8
ASHADE
  6
Continuous
 62
           7
100
AcDbLine
 10
-0.29
 20
-0.22
 30
0.0
 11
-0.25
 21
-0.22
 31
0.0
  0
LINE
  5
441
100
AcDbEntity
  8
ASHADE
  6
Continuous
 62
           7
100
AcDbLine
 10
-0.25
 20
-0.18
 30
0.0
 11
-0.29
 21
-0.18
 31
0.0
  0
LINE
  5
442
100
AcDbEntity
  8
ASHADE
  6
Continuous
 62
           7
100
AcDbLine
 10
0.29
 20
-0.22
 30
0.0
 11
0.25
 21
-0.22
 31
0.0
  0
LINE
  5
443
100
AcDbEntity
  8
ASHADE
  6
Continuous
 62
           7
100
AcDbLine
 10
0.25
 20
-0.18
 30
0.0
 11
0.29
 21
-0.18
 31
0.0
  0
LINE
  5
444
100
AcDbEntity
  8
ASHADE
  6
Continuous
 62
           7
100
AcDbLine
 10
0.29
 20
0.18
 30
0.0
 11
0.25
 21
0.18
 31
0.0
  0
LINE
  5
445
100
AcDbEntity
  8
ASHADE
  6
Continuous
 62
           7
100
AcDbLine
 10
0.25
 20
0.22
 30
0.0
 11
0.29
 21
0.22
 31
0.0
  0
LINE
  5
446
100
AcDbEntity
  8
ASHADE
  6
Continuous
 62
           7
100
AcDbLine
 10
-0.29
 20
0.18
 30
0.0
 11
-0.25
 21
0.18
 31
0.0
  0
LINE
  5
447
100
AcDbEntity
  8
ASHADE
  6
Continuous
 62
           7
100
AcDbLine
 10
-0.25
 20
0.22
 30
0.0
 11
-0.29
 21
0.22
 31
0.0
  0
ATTDEF
  5
448
100
AcDbEntity
  8
ASHADE
  6
Continuous
 62
           7
100
AcDbText
 10
0.0
 20
-0.33
 30
0.0
 40
0.01
  1
0,0,0
100
AcDbAttributeDefinition
  3
Look-from XYZ
  2
LFXYZ
 70
           1
  0
ENDBLK
  5
449
100
AcDbEntity
  8
0
100
AcDbBlockEnd
  0
BLOCK
  5
463
100
AcDbEntity
  8
0
100
AcDbBlockBegin
  2
*E8
 70
           1
 10
0.0
 20
0.0
 30
0.0
  3
*E8
  1

  0
LWPOLYLINE
  5
464
100
AcDbEntity
  8
0
370
           0
  6
Continuous
 62
           7
100
AcDbPolyline
 90
        2
 70
           0
 10
550.219819352515
 20
-38.008646785139
 10
558.036762352515
 20
-45.880016785139
  0
LWPOLYLINE
  5
465
100
AcDbEntity
  8
0
370
           0
  6
Continuous
 62
           7
100
AcDbPolyline
 90
        2
 70
           0
 10
556.191917647485
 20
-47.712105214861
 40
0.0
 41
0.0
 10
548.374974647485
 20
-39.840735214861
 40
0.0
 41
0.0
  0
ENDBLK
  5
466
100
AcDbEntity
  8
0
100
AcDbBlockEnd
  0
BLOCK
  5
469
100
AcDbEntity
  8
0
100
AcDbBlockBegin
  2
*E9
 70
           1
 10
0.0
 20
0.0
 30
0.0
  3
*E9
  1

  0
LWPOLYLINE
  5
46A
100
AcDbEntity
  8
0
370
           0
  6
Continuous
 62
           7
100
AcDbPolyline
 90
        2
 70
           0
 10
605.999510738022
 20
-39.821409990425
 10
598.219839738022
 20
-47.716574990425
  0
LWPOLYLINE
  5
46B
100
AcDbEntity
  8
0
370
           0
  6
Continuous
 62
           7
100
AcDbPolyline
 90
        2
 70
           0
 10
596.367866261979
 20
-45.891693009575
 40
0.0
 41
0.0
 10
604.147537261979
 20
-37.996528009575
 40
0.0
 41
0.0
  0
ENDBLK
  5
46C
100
AcDbEntity
  8
0
100
AcDbBlockEnd
  0
BLOCK
  5
46F
100
AcDbEntity
  8
0
100
AcDbBlockBegin
  2
*E10
 70
           1
 10
0.0
 20
0.0
 30
0.0
  3
*E10
  1

  0
LWPOLYLINE
  5
470
100
AcDbEntity
  8
0
370
           0
  6
Continuous
 62
           7
100
AcDbPolyline
 90
        2
 70
           0
 10
604.189149071151
 20
-96.099319335938
 10
596.286566071151
 20
-88.118387335938
  0
LWPOLYLINE
  5
471
100
AcDbEntity
  8
0
370
           0
  6
Continuous
 62
           7
100
AcDbPolyline
 90
        2
 70
           0
 10
598.134089928849
 20
-86.289000664062
 40
0.0
 41
0.0
 10
606.036672928849
 20
-94.269932664062
 40
0.0
 41
0.0
  0
ENDBLK
  5
472
100
AcDbEntity
  8
0
100
AcDbBlockEnd
  0
BLOCK
  5
475
100
AcDbEntity
  8
0
100
AcDbBlockBegin
  2
*E11
 70
           1
 10
0.0
 20
0.0
 30
0.0
  3
*E11
  1

  0
LWPOLYLINE
  5
476
100
AcDbEntity
  8
0
370
           0
  6
Continuous
 62
           7
100
AcDbPolyline
 90
        2
 70
           0
 10
548.395637625686
 20
-94.334561496636
 10
556.190471625686
 20
-86.430184496636
  0
LWPOLYLINE
  5
477
100
AcDbEntity
  8
0
370
           0
  6
Continuous
 62
           7
100
AcDbPolyline
 90
        2
 70
           0
 10
558.041732374314
 20
-88.255789503364
 40
0.0
 41
0.0
 10
550.246898374314
 20
-96.160166503364
 40
0.0
 41
0.0
  0
ENDBLK
  5
478
100
AcDbEntity
  8
0
100
AcDbBlockEnd
  0
ENDSEC
  0
SECTION
  2
ENTITIES
  0
LINE
  5
95
100
AcDbEntity
  8
0
370
           0
  6
Continuous
 62
           7
 48
0.20000000298
100
AcDbLine
 10
429.158208
 20
-101.635072
 30
0.0
 11
430.470961
 21
-100.978696
 31
0.0
  0
LINE
  5
96
100
AcDbEntity
  8
0
370
           0
  6
Continuous
 62
           7
 48
0.20000000298
100
AcDbLine
 10
433.752843
 20
-101.635072
 30
0.0
 11
429.158208
 21
-101.635072
 31
0.0
  0
TEXT
  5
98
100
AcDbEntity
  8
0
  6
Continuous
 62
           7
100
AcDbText
 10
434.737407
 20
-104.236554996927
 30
0.0
 40
3.787879019976
  1
SGP(VD)
 41
1.07
  7
_TCW_TXTSTY_1
 72
           5
 11
452.237407
 21
-104.236554996927
 31
0.0
100
AcDbText
1001
TCAD
1000
TCW40_TEXT
1002
{
1000
ＭＳ ゴシック
1070
           0
1070
        1025
1002
}
  0
TEXT
  5
99
100
AcDbEntity
  8
0
  6
Continuous
 62
           7
100
AcDbText
 10
438.921809
 20
-82.644910988753
 30
0.0
 40
2.237646073103
  1
100φ
 41
1.07
  7
_TCW_TXTSTY_1
 72
           5
 11
446.306041
 21
-82.644910988753
 31
0.0
100
AcDbText
1001
TCAD
1000
TCW40_TEXT
1002
{
1000
ＭＳ ゴシック
1070
           0
1070
        1025
1002
}
  0
LINE
  5
9A
100
AcDbEntity
  8
0
370
           0
  6
Continuous
 62
           7
 48
0.20000000298
100
AcDbLine
 10
437.034724
 20
-79.646465
 30
0.0
 11
448.193122
 21
-79.646465
 31
0.0
  0
LINE
  5
9B
100
AcDbEntity
  8
0
370
           0
  6
Continuous
 62
           7
 48
0.20000000298
100
AcDbLine
 10
448.193122
 20
-74.395454
 30
0.0
 11
447.864934
 21
-82.600158
 31
0.0
  0
LINE
  5
9C
100
AcDbEntity
  8
0
370
           0
  6
Continuous
 62
           7
 48
0.20000000298
100
AcDbLine
 10
437.034724
 20
-74.067266
 30
0.0
 11
437.034724
 21
-81.943782
 31
0.0
  0
LINE
  5
9D
100
AcDbEntity
  8
0
  6
Continuous
 62
           7
100
AcDbLine
 10
374.575042
 20
-12.639709
 30
0.0
 11
372.431998
 21
-12.639709
 31
0.0
1001
ACAD
1000
TCW40_DEV_WIDTH
1002
{
1040
-3.0
1002
}
  0
LINE
  5
9E
100
AcDbEntity
  8
0
  6
Continuous
 62
           7
100
AcDbLine
 10
374.575042
 20
-22.768286
 30
0.0
 11
372.431998
 21
-22.768286
 31
0.0
1001
ACAD
1000
TCW40_DEV_WIDTH
1002
{
1040
-3.0
1002
}
  0
LWPOLYLINE
  5
9F
100
AcDbEntity
  8
0
  6
Continuous
 62
           7
100
AcDbPolyline
 90
        4
 70
           0
 10
374.431998
 20
-15.639709
 10
374.431998
 20
-15.639709
 10
374.431998
 20
-15.639709
 10
374.431998
 20
-15.924976
1001
ACAD
1000
TCW40_DEV_WIDTH
1002
{
1040
-3.0
1002
}
  0
LWPOLYLINE
  5
A0
100
AcDbEntity
  8
0
  6
Continuous
 62
           7
100
AcDbPolyline
 90
        4
 70
           0
 10
374.431998
 20
-19.768286
 10
374.431998
 20
-19.768286
 10
374.431998
 20
-19.768286
 10
374.431998
 20
-19.483019
1001
ACAD
1000
TCW40_DEV_WIDTH
1002
{
1040
-3.0
1002
}
  0
SOLID
  5
A1
100
AcDbEntity
  8
0
  6
Continuous
 62
           7
100
AcDbTrace
 10
374.431998
 20
-12.639709
 30
0.0
 11
374.041998
 21
-15.639709
 31
0.0
 12
374.431998
 22
-12.639709
 32
0.0
 13
374.821998
 23
-15.639709
 33
0.0
  0
SOLID
  5
A2
100
AcDbEntity
  8
0
  6
Continuous
 62
           7
100
AcDbTrace
 10
374.431998
 20
-22.768286
 30
0.0
 11
374.821998
 21
-19.768286
 31
0.0
 12
374.431998
 22
-22.768286
 32
0.0
 13
374.041998
 23
-19.768286
 33
0.0
  0
TEXT
  5
A3
100
AcDbEntity
  8
0
  6
Continuous
 62
           7
100
AcDbText
 10
372.94948
 20
-18.815886014403
 30
0.0
 40
2.409090906382
  1
50
 72
           5
 11
375.914516
 21
-18.815886014403
 31
0.0
100
AcDbText
1001
TCAD
1000
TCW40_TEXT
1002
{
1000
ＭＳ ゴシック
1070
           0
1070
        1025
1002
}
  0
LWPOLYLINE
  5
A4
100
AcDbEntity
  8
0
  6
Continuous
 62
           7
100
AcDbPolyline
 90
        4
 70
           0
 10
415.438304
 20
-35.547713
 10
287.138867081006
 20
-35.547713
 10
283.733883892416
 20
-35.547713
 10
281.463894844403
 20
-35.547713
1001
ACAD
1000
TCW40_DEV_WIDTH
1002
{
1040
-3.0
1002
}
  0
SOLID
  5
A5
100
AcDbEntity
  8
0
  6
Continuous
 62
           7
100
AcDbTrace
 10
418.4383
 20
-35.547713
 30
0.0
 11
415.4383
 21
-35.157713
 31
0.0
 12
418.4383
 22
-35.547713
 32
0.0
 13
415.4383
 23
-35.937713
 33
0.0
  0
LWPOLYLINE
  5
A6
100
AcDbEntity
  8
0
  6
Continuous
 62
           7
100
AcDbPolyline
 90
        5
 70
           0
 10
451.058018
 20
-11.470728
 10
488.120244156567
 20
1.615051
 10
614.521357646179
 20
1.615051
 10
618.111070770062
 20
1.615051
 10
620.50421321285
 20
1.615051
1001
ACAD
1000
TCW40_DEV_WIDTH
1002
{
1040
-3.0
1002
}
  0
SOLID
  5
A7
100
AcDbEntity
  8
0
  6
Continuous
 62
           7
100
AcDbTrace
 10
448.294525
 20
-12.63825
 30
0.0
 11
451.209796
 21
-11.829982
 31
0.0
 12
448.294525
 22
-12.63825
 32
0.0
 13
450.90624
 23
-11.111474
 33
0.0
  0
LINE
  5
A8
100
AcDbEntity
  8
0
370
           0
  6
Continuous
 62
           7
 48
0.20000000298
100
AcDbLine
 10
461.090111
 20
-9.398875
 30
0.0
 11
461.090111
 21
-12.638262
 31
0.0
  0
LINE
  5
A9
100
AcDbEntity
  8
0
370
           0
  6
Continuous
 62
           7
 48
0.20000000298
100
AcDbLine
 10
403.429027
 20
-9.074936
 30
0.0
 11
403.429027
 21
-11.990384
 31
0.0
  0
LINE
  5
AA
100
AcDbEntity
  8
0
  6
Continuous
 62
           7
100
AcDbLine
 10
403.42903
 20
-10.517814
 30
0.0
 11
403.42903
 21
-10.517814
 31
0.0
1001
ACAD
1000
TCW40_DEV_WIDTH
1002
{
1040
-3.0
1002
}
  0
LINE
  5
AB
100
AcDbEntity
  8
0
  6
Continuous
 62
           7
100
AcDbLine
 10
460.44224
 20
-10.517814
 30
0.0
 11
460.44224
 21
-10.517814
 31
0.0
1001
ACAD
1000
TCW40_DEV_WIDTH
1002
{
1040
-3.0
1002
}
  0
LWPOLYLINE
  5
AC
100
AcDbEntity
  8
0
  6
Continuous
 62
           7
100
AcDbPolyline
 90
        4
 70
           0
 10
406.42903
 20
-10.517814
 10
406.42903
 20
-10.517814
 10
406.42903
 20
-10.517814
 10
426.229341
 20
-10.517814
1001
ACAD
1000
TCW40_DEV_WIDTH
1002
{
1040
-3.0
1002
}
  0
LWPOLYLINE
  5
AD
100
AcDbEntity
  8
0
  6
Continuous
 62
           7
100
AcDbPolyline
 90
        4
 70
           0
 10
457.44224
 20
-10.517814
 10
457.44224
 20
-10.517814
 10
457.44224
 20
-10.517814
 10
437.641929
 20
-10.517814
1001
ACAD
1000
TCW40_DEV_WIDTH
1002
{
1040
-3.0
1002
}
  0
SOLID
  5
AE
100
AcDbEntity
  8
0
  6
Continuous
 62
           7
100
AcDbTrace
 10
403.42903
 20
-10.517814
 30
0.0
 11
406.42903
 21
-10.907814
 31
0.0
 12
403.42903
 22
-10.517814
 32
0.0
 13
406.42903
 23
-10.127814
 33
0.0
  0
SOLID
  5
AF
100
AcDbEntity
  8
0
  6
Continuous
 62
           7
100
AcDbTrace
 10
460.44224
 20
-10.517814
 30
0.0
 11
457.44224
 21
-10.127814
 31
0.0
 12
460.44224
 22
-10.517814
 32
0.0
 13
457.44224
 23
-10.907814
 33
0.0
  0
TEXT
  5
B0
100
AcDbEntity
  8
0
  6
Continuous
 62
           7
100
AcDbText
 10
428.229341
 20
-11.629702014403
 30
0.0
 40
2.409090906382
  1
400φ
 72
           5
 11
435.641929
 21
-11.629702014403
 31
0.0
100
AcDbText
1001
TCAD
1000
TCW40_TEXT
1002
{
1000
ＭＳ ゴシック
1070
           0
1070
        1025
1002
}
  0
LINE
  5
B1
100
AcDbEntity
  8
0
  6
Continuous
 62
           7
100
AcDbLine
 10
425.552177
 20
-127.445576
 30
0.0
 11
425.551679
 21
-128.9471
 31
0.0
1001
ACAD
1000
TCW40_DEV_WIDTH
1002
{
1040
-3.0
1002
}
  0
LINE
  5
B2
100
AcDbEntity
  8
0
  6
Continuous
 62
           7
100
AcDbLine
 10
410.460512
 20
-127.440569
 30
0.0
 11
410.460014
 21
-128.942093
 31
0.0
1001
ACAD
1000
TCW40_DEV_WIDTH
1002
{
1040
-3.0
1002
}
  0
LWPOLYLINE
  5
B3
100
AcDbEntity
  8
0
  6
Continuous
 62
           7
100
AcDbPolyline
 90
        4
 70
           0
 10
422.552343
 20
-126.946105
 10
422.552343
 20
-126.946105
 10
422.552343
 20
-126.946105
 10
421.489027
 20
-126.945752
1001
ACAD
1000
TCW40_DEV_WIDTH
1002
{
1040
-3.0
1002
}
  0
LWPOLYLINE
  5
B4
100
AcDbEntity
  8
0
  6
Continuous
 62
           7
100
AcDbPolyline
 90
        4
 70
           0
 10
413.460677
 20
-126.943088
 10
413.460677
 20
-126.943088
 10
413.460677
 20
-126.943088
 10
414.523993
 20
-126.943441
1001
ACAD
1000
TCW40_DEV_WIDTH
1002
{
1040
-3.0
1002
}
  0
SOLID
  5
B5
100
AcDbEntity
  8
0
  6
Continuous
 62
           7
100
AcDbTrace
 10
425.552343
 20
-126.9471
 30
0.0
 11
422.552472
 21
-126.556105
 31
0.0
 12
425.552343
 22
-126.9471
 32
0.0
 13
422.552213
 23
-127.336105
 33
0.0
  0
SOLID
  5
B6
100
AcDbEntity
  8
0
  6
Continuous
 62
           7
100
AcDbTrace
 10
410.460678
 20
-126.942093
 30
0.0
 11
413.460548
 21
-127.333088
 31
0.0
 12
410.460678
 22
-126.942093
 32
0.0
 13
413.460807
 23
-126.553088
 33
0.0
  0
TEXT
  5
B7
100
AcDbEntity
  8
0
  6
Continuous
 62
           7
100
AcDbText
 10
416.523623999995
 20
-128.055993014403
 30
0.0
 40
2.409090906382
  1
90
 50
-0.019009
 72
           5
 11
419.488659000092
 21
-128.056976723026
 31
0.0
100
AcDbText
1001
TCAD
1000
TCW40_TEXT
1002
{
1000
ＭＳ ゴシック
1070
           0
1070
        1025
1002
}
  0
LINE
  5
B8
100
AcDbEntity
  8
0
370
           0
  6
DOT
 62
           7
 48
0.20000000298
100
AcDbLine
 10
410.555678
 20
-88.92582
 30
0.0
 11
410.555678
 21
-127.150584
 31
0.0
  0
LINE
  5
B9
100
AcDbEntity
  8
0
370
           0
  6
Continuous
 62
           7
 48
0.20000000298
100
AcDbLine
 10
390.228541
 20
-12.949523
 30
0.0
 11
386.017338
 21
-17.160726
 31
0.0
  0
LINE
  5
BA
100
AcDbEntity
  8
0
370
           0
  6
Continuous
 62
           7
 48
0.20000000298
100
AcDbLine
 10
389.094755
 20
-12.949523
 30
0.0
 11
384.721583
 21
-17.322695
 31
0.0
  0
LINE
  5
BB
100
AcDbEntity
  8
0
370
           0
  6
Continuous
 62
           7
 48
0.20000000298
100
AcDbLine
 10
388.122939
 20
-12.949523
 30
0.0
 11
384.073706
 21
-16.998757
 31
0.0
  0
LINE
  5
BC
100
AcDbEntity
  8
0
370
           0
  6
Continuous
 62
           7
 48
0.20000000298
100
AcDbLine
 10
398.165038
 20
-12.949523
 30
0.0
 11
394.277774
 21
-16.836787
 31
0.0
  0
LINE
  5
BD
100
AcDbEntity
  8
0
370
           0
  6
Continuous
 62
           7
 48
0.20000000298
100
AcDbLine
 10
397.355191
 20
-12.949523
 30
0.0
 11
393.467927
 21
-16.836787
 31
0.0
  0
LINE
  5
BE
100
AcDbEntity
  8
0
370
           0
  6
Continuous
 62
           7
 48
0.20000000298
100
AcDbLine
 10
396.707314
 20
-12.949523
 30
0.0
 11
392.82005
 21
-16.836787
 31
0.0
  0
LINE
  5
BF
100
AcDbEntity
  8
0
370
           0
  6
Continuous
 62
           7
 48
0.20000000298
100
AcDbLine
 10
474.128658
 20
-12.949523
 30
0.0
 11
470.727302
 21
-16.350879
 31
0.0
  0
LINE
  5
C0
100
AcDbEntity
  8
0
370
           0
  6
Continuous
 62
           7
 48
0.20000000298
100
AcDbLine
 10
473.156842
 20
-12.949523
 30
0.0
 11
469.431547
 21
-16.674818
 31
0.0
  0
LINE
  5
C1
100
AcDbEntity
  8
0
370
           0
  6
Continuous
 62
           7
 48
0.20000000298
100
AcDbLine
 10
472.185026
 20
-13.111493
 30
0.0
 11
468.459731
 21
-16.836787
 31
0.0
  0
LINE
  5
C2
100
AcDbEntity
  8
0
370
           0
  6
Continuous
 62
           7
 48
0.20000000298
100
AcDbLine
 10
483.846818
 20
-12.949523
 30
0.0
 11
479.149707
 21
-17.646634
 31
0.0
  0
LINE
  5
C3
100
AcDbEntity
  8
0
370
           0
  6
Continuous
 62
           7
 48
0.20000000298
100
AcDbLine
 10
482.713033
 20
-12.949523
 30
0.0
 11
478.015922
 21
-17.646634
 31
0.0
  0
LINE
  5
C4
100
AcDbEntity
  8
0
370
           0
  6
Continuous
 62
           7
 48
0.20000000298
100
AcDbLine
 10
481.741217
 20
-12.949523
 30
0.0
 11
477.206075
 21
-17.484665
 31
0.0
  0
LINE
  5
C5
100
AcDbEntity
  8
0
370
           0
  6
Continuous
 62
           7
 48
0.20000000298
100
AcDbLine
 10
478.015922
 20
-13.111493
 30
0.0
 11
482.227125
 21
-17.322695
 31
0.0
  0
LINE
  5
C6
100
AcDbEntity
  8
0
370
           0
  6
Continuous
 62
           7
 48
0.20000000298
100
AcDbLine
 10
476.558198
 20
-12.949523
 30
0.0
 11
480.93137
 21
-17.322695
 31
0.0
  0
LINE
  5
C7
100
AcDbEntity
  8
0
370
           0
  6
Continuous
 62
           7
 48
0.20000000298
100
AcDbLine
 10
475.424413
 20
-12.949523
 30
0.0
 11
480.121524
 21
-17.646634
 31
0.0
  0
LINE
  5
C8
100
AcDbEntity
  8
0
370
           0
  6
Continuous
 62
           7
 48
0.20000000298
100
AcDbLine
 10
467.649884
 20
-12.949523
 30
0.0
 11
472.346995
 21
-17.646634
 31
0.0
  0
LINE
  5
C9
100
AcDbEntity
  8
0
370
           0
  6
Continuous
 62
           7
 48
0.20000000298
100
AcDbLine
 10
466.19216
 20
-12.949523
 30
0.0
 11
470.727302
 21
-17.484665
 31
0.0
  0
LINE
  5
CA
100
AcDbEntity
  8
0
370
           0
  6
Continuous
 62
           7
 48
0.20000000298
100
AcDbLine
 10
465.058375
 20
-12.949523
 30
0.0
 11
469.917455
 21
-17.808604
 31
0.0
  0
LINE
  5
CB
100
AcDbEntity
  8
0
370
           0
  6
Continuous
 62
           7
 48
0.20000000298
100
AcDbLine
 10
377.756901
 20
-12.949523
 30
0.0
 11
382.130074
 21
-17.322695
 31
0.0
  0
LINE
  5
CC
100
AcDbEntity
  8
0
370
           0
  6
Continuous
 62
           7
 48
0.20000000298
100
AcDbLine
 10
378.890687
 20
-12.949523
 30
0.0
 11
383.10189
 21
-17.160726
 31
0.0
  0
LINE
  5
CD
100
AcDbEntity
  8
0
370
           0
  6
Continuous
 62
           7
 48
0.20000000298
100
AcDbLine
 10
383.101889
 20
-12.949523
 30
0.0
 11
387.799
 21
-17.646634
 31
0.0
  0
LINE
  5
CE
100
AcDbEntity
  8
0
370
           0
  6
Continuous
 62
           7
 48
0.20000000298
100
AcDbLine
 10
384.397644
 20
-12.949523
 30
0.0
 11
389.256725
 21
-17.808604
 31
0.0
  0
LINE
  5
CF
100
AcDbEntity
  8
0
370
           0
  6
Continuous
 62
           7
 48
0.20000000298
100
AcDbLine
 10
385.36946
 20
-12.949523
 30
0.0
 11
390.228541
 21
-17.808604
 31
0.0
  0
LINE
  5
D0
100
AcDbEntity
  8
0
370
           0
  6
Continuous
 62
           7
 48
0.20000000298
100
AcDbLine
 10
391.686264
 20
-12.949523
 30
0.0
 11
395.735498
 21
-16.998757
 31
0.0
  0
LINE
  5
D1
100
AcDbEntity
  8
0
370
           0
  6
Continuous
 62
           7
 48
0.20000000298
100
AcDbLine
 10
392.82005
 20
-12.949523
 30
0.0
 11
396.383375
 21
-16.512849
 31
0.0
  0
LINE
  5
D2
100
AcDbEntity
  8
0
370
           0
  6
Continuous
 62
           7
 48
0.20000000298
100
AcDbLine
 10
393.791866
 20
-12.949523
 30
0.0
 11
396.869283
 21
-16.026941
 31
0.0
  0
TEXT
  5
D3
100
AcDbEntity
  8
0
  6
Continuous
 62
           7
100
AcDbText
 10
434.062294
 20
-66.021490005204
 30
0.0
 40
2.875571966171
  1
水抜き孔
 41
1.07
  7
_TCW_TXTSTY_1
 72
           5
 11
449.245313
 21
-66.021490005204
 31
0.0
100
AcDbText
1001
TCAD
1000
TCW40_TEXT
1002
{
1000
ＭＳ ゴシック
1070
           0
1070
        1025
1002
}
  0
LINE
  5
D4
100
AcDbEntity
  8
0
  6
Continuous
 62
           7
100
AcDbLine
 10
394.654514
 20
-23.234576
 30
0.0
 11
393.006637
 21
-23.234576
 31
0.0
1001
ACAD
1000
TCW40_DEV_WIDTH
1002
{
1040
-3.0
1002
}
  0
LINE
  5
D5
100
AcDbEntity
  8
0
  6
Continuous
 62
           7
100
AcDbLine
 10
394.654514
 20
-67.290236
 30
0.0
 11
393.006637
 21
-67.290236
 31
0.0
1001
ACAD
1000
TCW40_DEV_WIDTH
1002
{
1040
-3.0
1002
}
  0
LWPOLYLINE
  5
D6
100
AcDbEntity
  8
0
  6
Continuous
 62
           7
100
AcDbPolyline
 90
        4
 70
           0
 10
395.006637
 20
-26.234576
 10
395.006637
 20
-26.234576
 10
395.006637
 20
-26.234576
 10
395.006637
 20
-42.465203
1001
ACAD
1000
TCW40_DEV_WIDTH
1002
{
1040
-3.0
1002
}
  0
LWPOLYLINE
  5
D7
100
AcDbEntity
  8
0
  6
Continuous
 62
           7
100
AcDbPolyline
 90
        4
 70
           0
 10
395.006637
 20
-64.290236
 10
395.006637
 20
-64.290236
 10
395.006637
 20
-64.290236
 10
395.006637
 20
-48.059609
1001
ACAD
1000
TCW40_DEV_WIDTH
1002
{
1040
-3.0
1002
}
  0
SOLID
  5
D8
100
AcDbEntity
  8
0
  6
Continuous
 62
           7
100
AcDbTrace
 10
395.006637
 20
-23.234576
 30
0.0
 11
394.616637
 21
-26.234576
 31
0.0
 12
395.006637
 22
-23.234576
 32
0.0
 13
395.396637
 23
-26.234576
 33
0.0
  0
SOLID
  5
D9
100
AcDbEntity
  8
0
  6
Continuous
 62
           7
100
AcDbTrace
 10
395.006637
 20
-67.290236
 30
0.0
 11
395.396637
 21
-64.290236
 31
0.0
 12
395.006637
 22
-67.290236
 32
0.0
 13
394.616637
 23
-64.290236
 33
0.0
  0
TEXT
  5
DA
100
AcDbEntity
  8
0
  6
Continuous
 62
           7
100
AcDbText
 10
391.510133
 20
-47.010657996927
 30
0.0
 40
3.787879019976
  1
300
 72
           5
 11
398.503141
 21
-47.010657996927
 31
0.0
100
AcDbText
1001
TCAD
1000
TCW40_TEXT
1002
{
1000
ＭＳ ゴシック
1070
           0
1070
        1025
1002
}
  0
LINE
  5
DB
100
AcDbEntity
  8
0
370
           0
  6
DOT
 62
           7
 48
0.20000000298
100
AcDbLine
 10
405.372674
 20
-23.234576
 30
0.0
 11
395.330575
 21
-23.234576
 31
0.0
  0
LINE
  5
DC
100
AcDbEntity
  8
0
370
           0
  6
DOT
 62
           7
 48
0.20000000298
100
AcDbLine
 10
410.879632
 20
-67.290236
 30
0.0
 11
394.358759
 21
-67.290236
 31
0.0
  0
LINE
  5
DD
100
AcDbEntity
  8
0
370
           0
  6
DOT
 62
           7
 48
0.20000000298
100
AcDbLine
 10
375.696628
 20
-22.26276
 30
0.0
 11
420.597793
 21
-22.26276
 31
0.0
  0
LINE
  5
DE
100
AcDbEntity
  8
0
370
           0
  6
DOT
 62
           7
 48
0.20000000298
100
AcDbLine
 10
517.131521
 20
-110.050142
 30
0.0
 11
383.344842
 21
-110.050142
 31
0.0
  0
LINE
  5
DF
100
AcDbEntity
  8
0
370
           0
  6
DOT
 62
           7
 48
0.20000000298
100
AcDbLine
 10
425.132934
 20
-127.54283
 30
0.0
 11
425.456872
 21
-6.713704
 31
0.0
  0
LINE
  5
E0
100
AcDbEntity
  8
0
370
           0
  6
DOT
 62
           7
 48
0.20000000298
100
AcDbLine
 10
506.117603
 20
-127.54283
 30
0.0
 11
506.117603
 21
-98.712288
 31
0.0
  0
LINE
  5
E1
100
AcDbEntity
  8
0
  6
Continuous
 62
           7
100
AcDbLine
 10
425.456872
 20
-127.894953
 30
0.0
 11
425.456872
 21
-129.54283
 31
0.0
1001
ACAD
1000
TCW40_DEV_WIDTH
1002
{
1040
-3.0
1002
}
  0
LINE
  5
E2
100
AcDbEntity
  8
0
  6
Continuous
 62
           7
100
AcDbLine
 10
505.793668
 20
-127.894953
 30
0.0
 11
505.793668
 21
-129.54283
 31
0.0
1001
ACAD
1000
TCW40_DEV_WIDTH
1002
{
1040
-3.0
1002
}
  0
LWPOLYLINE
  5
E3
100
AcDbEntity
  8
0
  6
Continuous
 62
           7
100
AcDbPolyline
 90
        4
 70
           0
 10
428.456872
 20
-127.54283
 10
428.456872
 20
-127.54283
 10
428.456872
 20
-127.54283
 10
460.128766
 20
-127.54283
1001
ACAD
1000
TCW40_DEV_WIDTH
1002
{
1040
-3.0
1002
}
  0
LWPOLYLINE
  5
E4
100
AcDbEntity
  8
0
  6
Continuous
 62
           7
100
AcDbPolyline
 90
        4
 70
           0
 10
502.793668
 20
-127.54283
 10
502.793668
 20
-127.54283
 10
502.793668
 20
-127.54283
 10
471.121774
 20
-127.54283
1001
ACAD
1000
TCW40_DEV_WIDTH
1002
{
1040
-3.0
1002
}
  0
SOLID
  5
E5
100
AcDbEntity
  8
0
  6
Continuous
 62
           7
100
AcDbTrace
 10
425.456872
 20
-127.54283
 30
0.0
 11
428.456872
 21
-127.93283
 31
0.0
 12
425.456872
 22
-127.54283
 32
0.0
 13
428.456872
 23
-127.15283
 33
0.0
  0
SOLID
  5
E6
100
AcDbEntity
  8
0
  6
Continuous
 62
           7
100
AcDbTrace
 10
505.793668
 20
-127.54283
 30
0.0
 11
502.793668
 21
-127.15283
 31
0.0
 12
505.793668
 22
-127.54283
 32
0.0
 13
502.793668
 23
-127.93283
 33
0.0
  0
TEXT
  5
E7
100
AcDbEntity
  8
0
  6
Continuous
 62
           7
100
AcDbText
 10
462.128766
 20
-129.291081996927
 30
0.0
 40
3.787879019976
  1
600
 72
           5
 11
469.121774
 21
-129.291081996927
 31
0.0
100
AcDbText
1001
TCAD
1000
TCW40_TEXT
1002
{
1000
ＭＳ ゴシック
1070
           0
1070
        1025
1002
}
  0
LINE
  5
E8
100
AcDbEntity
  8
0
  6
Continuous
 62
           7
100
AcDbLine
 10
383.373028
 20
-22.26276
 30
0.0
 11
385.668783
 21
-22.26276
 31
0.0
1001
ACAD
1000
TCW40_DEV_WIDTH
1002
{
1040
-3.0
1002
}
  0
LINE
  5
E9
100
AcDbEntity
  8
0
  6
Continuous
 62
           7
100
AcDbLine
 10
383.373028
 20
-110.050141
 30
0.0
 11
385.668783
 21
-110.050141
 31
0.0
1001
ACAD
1000
TCW40_DEV_WIDTH
1002
{
1040
-3.0
1002
}
  0
LWPOLYLINE
  5
EA
100
AcDbEntity
  8
0
  6
Continuous
 62
           7
100
AcDbPolyline
 90
        4
 70
           0
 10
383.668783
 20
-25.26276
 10
383.668783
 20
-25.26276
 10
383.668783
 20
-25.26276
 10
383.668783
 20
-63.359248
1001
ACAD
1000
TCW40_DEV_WIDTH
1002
{
1040
-3.0
1002
}
  0
LWPOLYLINE
  5
EB
100
AcDbEntity
  8
0
  6
Continuous
 62
           7
100
AcDbPolyline
 90
        4
 70
           0
 10
383.668783
 20
-107.050141
 10
383.668783
 20
-107.050141
 10
383.668783
 20
-107.050141
 10
383.668783
 20
-68.953653
1001
ACAD
1000
TCW40_DEV_WIDTH
1002
{
1040
-3.0
1002
}
  0
SOLID
  5
EC
100
AcDbEntity
  8
0
  6
Continuous
 62
           7
100
AcDbTrace
 10
383.668783
 20
-22.26276
 30
0.0
 11
383.278783
 21
-25.26276
 31
0.0
 12
383.668783
 22
-22.26276
 32
0.0
 13
384.058783
 23
-25.26276
 33
0.0
  0
SOLID
  5
ED
100
AcDbEntity
  8
0
  6
Continuous
 62
           7
100
AcDbTrace
 10
383.668783
 20
-110.050141
 30
0.0
 11
384.058783
 21
-107.050141
 31
0.0
 12
383.668783
 22
-110.050141
 32
0.0
 13
383.278783
 23
-107.050141
 33
0.0
  0
TEXT
  5
EE
100
AcDbEntity
  8
0
  6
Continuous
 62
           7
100
AcDbText
 10
374.344773
 20
-67.904701996927
 30
0.0
 40
3.787879019976
  1
700～800
 72
           5
 11
392.992793
 21
-67.904701996927
 31
0.0
100
AcDbText
1001
TCAD
1000
TCW40_TEXT
1002
{
1000
ＭＳ ゴシック
1070
           0
1070
        1025
1002
}
  0
ELLIPSE
  5
EF
100
AcDbEntity
  8
0
370
           0
  6
Continuous
 62
           7
 48
0.20000000298
100
AcDbEllipse
 10
457.479048
 20
-91.757884
 30
0.0
 11
2.3136920928955078
 21
0.0
 31
0.0
210
0.0
220
0.0
230
1.0
 40
0.466585
 41
0.0
 42
6.2831853071795862
  0
LINE
  5
F0
100
AcDbEntity
  8
0
370
           0
  6
Continuous
 62
           7
 48
0.20000000298
100
AcDbLine
 10
497.147187
 20
-113.829379
 30
0.0
 11
501.479543
 21
-113.829379
 31
0.0
  0
LINE
  5
F1
100
AcDbEntity
  8
0
370
           0
  6
Continuous
 62
           7
 48
0.20000000298
100
AcDbLine
 10
497.147187
 20
-106.924686
 30
0.0
 11
501.344157
 21
-106.924686
 31
0.0
  0
LINE
  5
F2
100
AcDbEntity
  8
0
370
           0
  6
Continuous
 62
           7
 48
0.20000000298
100
AcDbLine
 10
432.165465
 20
-113.761686
 30
0.0
 11
496.605642
 21
-113.761686
 31
0.0
  0
LWPOLYLINE
  5
F3
100
AcDbEntity
  8
0
370
           0
  6
Continuous
 62
           7
 48
0.20000000298
100
AcDbPolyline
 90
        4
 70
           1
 10
496.552201
 20
-106.551301
 10
497.20063
 20
-106.551301
 10
497.20063
 20
-114.202764
 10
496.552201
 20
-114.202764
  0
ELLIPSE
  5
F4
100
AcDbEntity
  8
0
370
           0
  6
Continuous
 62
           7
 48
0.20000000298
100
AcDbEllipse
 10
505.871014
 20
-110.075254
 30
0.0
 11
5.1560792922973633
 21
0.0
 31
0.0
210
0.0
220
0.0
230
1.0
 40
0.980774
 41
0.0
 42
6.2831853071795862
  0
ELLIPSE
  5
F5
100
AcDbEntity
  8
0
370
           0
  6
Continuous
 62
           7
 48
0.20000000298
100
AcDbEllipse
 10
505.871014
 20
-110.075254
 30
0.0
 11
5.8004403114318848
 21
0.0
 31
0.0
210
0.0
220
0.0
230
1.0
 40
0.980774
 41
0.0
 42
6.2831853071795862
  0
ELLIPSE
  5
F6
100
AcDbEntity
  8
0
370
           0
  6
Continuous
 62
           7
 48
0.20000000298
100
AcDbEllipse
 10
505.871014
 20
-110.075254
 30
0.0
 11
5.8004403114318848
 21
0.0
 31
0.0
210
0.0
220
0.0
230
1.0
 40
0.980774
 41
0.0
 42
6.2831853071795862
  0
LINE
  5
F7
100
AcDbEntity
  8
0
370
           0
  6
Continuous
 62
           7
 48
0.20000000298
100
AcDbLine
 10
432.298773
 20
-106.858775
 30
0.0
 11
496.605646
 21
-106.858775
 31
0.0
  0
ARC
  5
F8
100
AcDbEntity
  8
0
370
           0
  6
Continuous
 62
           7
 48
0.20000000298
100
AcDbCircle
 10
431.118059
 20
-104.457946
 30
0.0
 40
2.439923
100
AcDbArc
 50
-172.325113
 51
-79.729631
  0
ARC
  5
F9
100
AcDbEntity
  8
0
370
           0
  6
Continuous
 62
           7
 48
0.20000000298
100
AcDbCircle
 10
430.383521
 20
-104.59956
 30
0.0
 40
9.207149
100
AcDbArc
 50
-178.853394
 51
-82.70215
  0
LWPOLYLINE
  5
FA
100
AcDbEntity
  8
0
370
           0
  6
Continuous
 62
           7
 48
0.20000000298
100
AcDbPolyline
 90
        4
 70
           1
 10
431.553081
 20
-106.469718
 10
432.20151
 20
-106.469718
 10
432.20151
 20
-114.121181
 10
431.553081
 20
-114.121181
  0
LWPOLYLINE
  5
FB
100
AcDbEntity
  8
0
370
           0
  6
Continuous
 62
           7
 48
0.20000000298
100
AcDbPolyline
 90
        4
 70
           1
 10
420.659473
 20
-104.135373
 10
429.089051
 20
-104.135373
 10
429.089051
 20
-104.783802
 10
420.659473
 20
-104.783802
  0
ELLIPSE
  5
FC
100
AcDbEntity
  8
0
370
           0
  6
Continuous
 62
           7
 48
0.20000000298
100
AcDbEllipse
 10
447.050537
 20
-92.171856
 30
0.0
 11
1.7049769766594831
 21
-0.8627642988045055
 31
0.0
210
0.0
220
0.0
230
1.0
 40
0.461053
 41
-0.0878501375529475
 42
6.195335169626639
  0
ELLIPSE
  5
FD
100
AcDbEntity
  8
0
370
           0
  6
Continuous
 62
           7
 48
0.20000000298
100
AcDbEllipse
 10
419.75167
 20
-91.912485
 30
0.0
 11
1.4637846732813911
 21
0.8364483275260645
 31
0.0
210
0.0
220
0.0
230
1.0
 40
0.673076
 41
0.0
 42
6.2831853071795782
  0
ELLIPSE
  5
FE
100
AcDbEntity
  8
0
370
           0
  6
Continuous
 62
           7
 48
0.20000000298
100
AcDbEllipse
 10
460.213651
 20
-93.728086
 30
0.0
 11
1.9279183149337769
 21
0.0
 31
0.0
210
0.0
220
0.0
230
1.0
 40
0.687237
 41
0.0
 42
6.2831853071795862
  0
ELLIPSE
  5
FF
100
AcDbEntity
  8
0
370
           0
  6
Continuous
 62
           7
 48
0.20000000298
100
AcDbEllipse
 10
456.841817
 20
-93.857772
 30
0.0
 11
1.6420893707087865
 21
0.7853466509649575
 31
0.0
210
0.0
220
0.0
230
1.0
 40
0.5
 41
0.0
 42
6.2831853071795809
  0
ELLIPSE
  5
100
100
AcDbEntity
  8
0
370
           0
  6
Continuous
 62
           7
 48
0.20000000298
100
AcDbEllipse
 10
453.859042
 20
-93.079658
 30
0.0
 11
1.9524729251861572
 21
0.0
 31
0.0
210
0.0
220
0.0
230
1.0
 40
0.832106
 41
0.0
 42
6.2831853071795862
  0
ELLIPSE
  5
101
100
AcDbEntity
  8
0
370
           0
  6
Continuous
 62
           7
 48
0.20000000298
100
AcDbEllipse
 10
450.128715
 20
-93.403872
 30
0.0
 11
1.3390437784694897
 21
1.9546852773029932
 31
0.0
210
0.0
220
0.0
230
1.0
 40
0.650199
 41
-0.0809948295355052
 42
6.2021904776440806
  0
ELLIPSE
  5
102
100
AcDbEntity
  8
0
370
           0
  6
Continuous
 62
           7
 48
0.20000000298
100
AcDbEllipse
 10
407.810906
 20
-92.860914
 30
0.0
 11
0.1524228636971693
 21
2.1339191476053148
 31
0.0
210
0.0
220
0.0
230
1.0
 40
0.795847
 41
-3.1415925025939666
 42
3.1415928045856196
  0
ELLIPSE
  5
103
100
AcDbEntity
  8
0
370
           0
  6
Continuous
 62
           7
 48
0.20000000298
100
AcDbEllipse
 10
410.867663
 20
-92.607591
 30
0.0
 11
0.7810608131826737
 21
-2.0799411772401837
 31
0.0
210
0.0
220
0.0
230
1.0
 40
0.535963
 41
3.1026284257557712
 42
9.3858137329353575
  0
ELLIPSE
  5
104
100
AcDbEntity
  8
0
370
           0
  6
Continuous
 62
           7
 48
0.20000000298
100
AcDbEllipse
 10
416.188169
 20
-90.874998
 30
0.0
 11
1.6239254474639893
 21
0.0
 31
0.0
210
0.0
220
0.0
230
1.0
 40
0.68232
 41
0.0
 42
6.2831853071795862
  0
ELLIPSE
  5
105
100
AcDbEntity
  8
0
370
           0
  6
Continuous
 62
           7
 48
0.20000000298
100
AcDbEllipse
 10
404.02202
 20
-92.429926
 30
0.0
 11
1.2869937105318159
 21
2.2307836217497372
 31
0.0
210
0.0
220
0.0
230
1.0
 40
0.681598
 41
0.0
 42
6.2831853071795853
  0
ELLIPSE
  5
106
100
AcDbEntity
  8
0
370
           0
  6
Continuous
 62
           7
 48
0.20000000298
100
AcDbEllipse
 10
452.043443
 20
-90.291412
 30
0.0
 11
1.4700688376036113
 21
-0.8045310818789335
 31
0.0
210
0.0
220
0.0
230
1.0
 40
0.634701
 41
0.1924200812962451
 42
6.4756053884758309
  0
ELLIPSE
  5
107
100
AcDbEntity
  8
0
370
           0
  6
Continuous
 62
           7
 48
0.20000000298
100
AcDbEllipse
 10
448.921309
 20
-89.967193
 30
0.0
 11
0.2276889627502568
 21
-1.8430762115631349
 31
0.0
210
0.0
220
0.0
230
1.0
 40
0.758763
 41
0.0795208970692525
 42
6.3627062042488385
  0
ELLIPSE
  5
108
100
AcDbEntity
  8
0
370
           0
  6
Continuous
 62
           7
 48
0.20000000298
100
AcDbEllipse
 10
441.927948
 20
-89.059397
 30
0.0
 11
2.2648653984069824
 21
0.0
 31
0.0
210
0.0
220
0.0
230
1.0
 40
0.5
 41
0.0
 42
6.2831853071795862
  0
ELLIPSE
  5
109
100
AcDbEntity
  8
0
370
           0
  6
Continuous
 62
           7
 48
0.20000000298
100
AcDbEllipse
 10
445.818524
 20
-89.03766
 30
0.0
 11
1.2107428040923283
 21
-1.8022128826594439
 31
0.0
210
0.0
220
0.0
230
1.0
 40
0.650984
 41
-0.2647053440425189
 42
6.0184799631370671
  0
ELLIPSE
  5
10A
100
AcDbEntity
  8
0
370
           0
  6
Continuous
 62
           7
 48
0.20000000298
100
AcDbEllipse
 10
442.340397
 20
-86.129773
 30
0.0
 11
3.0061607360839844
 21
0.0
 31
0.0
210
0.0
220
0.0
230
1.0
 40
0.58628
 41
0.0
 42
6.2831853071795862
  0
ELLIPSE
  5
10B
100
AcDbEntity
  8
0
370
           0
  6
Continuous
 62
           7
 48
0.20000000298
100
AcDbEllipse
 10
448.152866
 20
-86.465681
 30
0.0
 11
2.0383884906768799
 21
0.0
 31
0.0
210
0.0
220
0.0
230
1.0
 40
0.895611
 41
0.0
 42
6.2831853071795862
  0
ELLIPSE
  5
10C
100
AcDbEntity
  8
0
370
           0
  6
Continuous
 62
           7
 48
0.20000000298
100
AcDbEllipse
 10
441.927943
 20
-73.671672
 30
0.0
 11
2.3343474864959717
 21
0.0
 31
0.0
210
0.0
220
0.0
230
1.0
 40
0.647437
 41
0.0
 42
6.2831853071795862
  0
ELLIPSE
  5
10D
100
AcDbEntity
  8
0
370
           0
  6
Continuous
 62
           7
 48
0.20000000298
100
AcDbEllipse
 10
449.024195
 20
-80.158408
 30
0.0
 11
0.0000000000000001
 21
-1.824695348739624
 31
0.0
210
0.0
220
0.0
230
1.0
 40
0.635318
 41
1.5707963267948966
 42
7.8539816339744828
  0
ELLIPSE
  5
10E
100
AcDbEntity
  8
0
370
           0
  6
Continuous
 62
           7
 48
0.20000000298
100
AcDbEllipse
 10
449.8408
 20
-77.276308
 30
0.0
 11
1.9432743787765503
 21
0.0
 31
0.0
210
0.0
220
0.0
230
1.0
 40
0.563012
 41
0.0
 42
6.2831853071795862
  0
ELLIPSE
  5
10F
100
AcDbEntity
  8
0
370
           0
  6
Continuous
 62
           7
 48
0.20000000298
100
AcDbEllipse
 10
445.946075
 20
-74.174624
 30
0.0
 11
1.7862027160049856
 21
1.033563612665326
 31
0.0
210
0.0
220
0.0
230
1.0
 40
0.737298
 41
-2.5814661979675106
 42
3.7017191092120756
  0
ELLIPSE
  5
110
100
AcDbEntity
  8
0
370
           0
  6
Continuous
 62
           7
 48
0.20000000298
100
AcDbEllipse
 10
449.36126
 20
-74.241588
 30
0.0
 11
0.9737369586328213
 21
-1.8056777929590708
 31
0.0
210
0.0
220
0.0
230
1.0
 40
0.72704
 41
-0.2804706533762928
 42
6.0027146538032934
  0
ELLIPSE
  5
111
100
AcDbEntity
  8
0
370
           0
  6
Continuous
 62
           7
 48
0.20000000298
100
AcDbEllipse
 10
454.115527
 20
-88.425853
 30
0.0
 11
0.0886561570043987
 21
-2.2994599981810331
 31
0.0
210
0.0
220
0.0
230
1.0
 40
0.44721
 41
0.0175717631962666
 42
6.3007570703758526
  0
ELLIPSE
  5
112
100
AcDbEntity
  8
0
370
           0
  6
Continuous
 62
           7
 48
0.20000000298
100
AcDbEllipse
 10
451.681297
 20
-87.009379
 30
0.0
 11
1.5868282802291223
 21
2.1912553168748032
 31
0.0
210
0.0
220
0.0
230
1.0
 40
0.500252
 41
0.0010201313998445
 42
6.2842054385794306
  0
ELLIPSE
  5
113
100
AcDbEntity
  8
0
370
           0
  6
Continuous
 62
           7
 48
0.20000000298
100
AcDbEllipse
 10
450.203909
 20
-83.112654
 30
0.0
 11
1.7862027160049856
 21
1.033563612665326
 31
0.0
210
0.0
220
0.0
230
1.0
 40
0.737298
 41
-2.5814661979675106
 42
3.7017191092120756
  0
ELLIPSE
  5
114
100
AcDbEntity
  8
0
370
           0
  6
Continuous
 62
           7
 48
0.20000000298
100
AcDbEllipse
 10
453.619093
 20
-83.179618
 30
0.0
 11
0.9737369586328213
 21
-1.8056777929590708
 31
0.0
210
0.0
220
0.0
230
1.0
 40
0.72704
 41
-0.2804706533762928
 42
6.0027146538032934
  0
ELLIPSE
  5
115
100
AcDbEntity
  8
0
370
           0
  6
Continuous
 62
           7
 48
0.20000000298
100
AcDbEllipse
 10
453.048026
 20
-75.015739
 30
0.0
 11
1.1285961768735588
 21
-2.7086307745133462
 31
0.0
210
0.0
220
0.0
230
1.0
 40
0.65136
 41
0.0
 42
6.2831853071795774
  0
ELLIPSE
  5
116
100
AcDbEntity
  8
0
370
           0
  6
Continuous
 62
           7
 48
0.20000000298
100
AcDbEllipse
 10
452.660952
 20
-79.531622
 30
0.0
 11
2.4102354049682617
 21
0.0
 31
0.0
210
0.0
220
0.0
230
1.0
 40
0.700746
 41
0.0
 42
6.2831853071795862
  0
ELLIPSE
  5
117
100
AcDbEntity
  8
0
370
           0
  6
Continuous
 62
           7
 48
0.20000000298
100
AcDbEllipse
 10
417.824135
 20
-74.241587
 30
0.0
 11
3.4869258403778076
 21
0.0
 31
0.0
210
0.0
220
0.0
230
1.0
 40
0.539094
 41
0.0
 42
6.2831853071795862
  0
ELLIPSE
  5
118
100
AcDbEntity
  8
0
370
           0
  6
Continuous
 62
           7
 48
0.20000000298
100
AcDbEllipse
 10
436.274747
 20
-74.241587
 30
0.0
 11
3.4869258403778076
 21
0.0
 31
0.0
210
0.0
220
0.0
230
1.0
 40
0.539094
 41
0.0
 42
6.2831853071795862
  0
ELLIPSE
  5
119
100
AcDbEntity
  8
0
370
           0
  6
Continuous
 62
           7
 48
0.20000000298
100
AcDbEllipse
 10
433.799624
 20
-88.746772
 30
0.0
 11
2.1595368385314941
 21
0.0
 31
0.0
210
0.0
220
0.0
230
1.0
 40
0.5
 41
0.0
 42
6.2831853071795862
  0
ELLIPSE
  5
11A
100
AcDbEntity
  8
0
370
           0
  6
Continuous
 62
           7
 48
0.20000000298
100
AcDbEllipse
 10
430.854822
 20
-90.096883
 30
0.0
 11
1.6832737485428411
 21
-1.6090126151740614
 31
0.0
210
0.0
220
0.0
230
1.0
 40
0.499695
 41
-0.018038554987627
 42
6.265146752191959
  0
ELLIPSE
  5
11B
100
AcDbEntity
  8
0
370
           0
  6
Continuous
 62
           7
 48
0.20000000298
100
AcDbEllipse
 10
437.81749
 20
-88.612846
 30
0.0
 11
1.5956910730969227
 21
2.0212086092574197
 31
0.0
210
0.0
220
0.0
230
1.0
 40
0.66195
 41
0.0
 42
6.2831853071795809
  0
ELLIPSE
  5
11C
100
AcDbEntity
  8
0
370
           0
  6
Continuous
 62
           7
 48
0.20000000298
100
AcDbEllipse
 10
435.376144
 20
-85.663627
 30
0.0
 11
2.8431386947631836
 21
0.0
 31
0.0
210
0.0
220
0.0
230
1.0
 40
0.566251
 41
0.0
 42
6.2831853071795862
  0
ELLIPSE
  5
11D
100
AcDbEntity
  8
0
370
           0
  6
Continuous
 62
           7
 48
0.20000000298
100
AcDbEllipse
 10
430.719267
 20
-86.603912
 30
0.0
 11
1.8816792964935303
 21
0.0
 31
0.0
210
0.0
220
0.0
230
1.0
 40
0.927051
 41
0.0
 42
6.2831853071795862
  0
ELLIPSE
  5
11E
100
AcDbEntity
  8
0
370
           0
  6
Continuous
 62
           7
 48
0.20000000298
100
AcDbEllipse
 10
430.853194
 20
-83.791408
 30
0.0
 11
2.0920345783233643
 21
0.0
 31
0.0
210
0.0
220
0.0
230
1.0
 40
0.5
 41
0.0
 42
6.2831853071795862
  0
ELLIPSE
  5
11F
100
AcDbEntity
  8
0
370
           0
  6
Continuous
 62
           7
 48
0.20000000298
100
AcDbEllipse
 10
431.924627
 20
-80.711046
 30
0.0
 11
2.861051518989643
 21
-1.2137792391874014
 31
0.0
210
0.0
220
0.0
230
1.0
 40
0.633707
 41
0.0
 42
6.2831853071796013
  0
ELLIPSE
  5
120
100
AcDbEntity
  8
0
370
           0
  6
Continuous
 62
           7
 48
0.20000000298
100
AcDbEllipse
 10
434.804099
 20
-77.965506
 30
0.0
 11
1.7862027160049856
 21
1.033563612665326
 31
0.0
210
0.0
220
0.0
230
1.0
 40
0.737298
 41
-2.5814661979675106
 42
3.7017191092120756
  0
ELLIPSE
  5
121
100
AcDbEntity
  8
0
370
           0
  6
Continuous
 62
           7
 48
0.20000000298
100
AcDbEllipse
 10
430.987124
 20
-75.487824
 30
0.0
 11
0.3585637439965705
 21
-3.1745139195160408
 31
0.0
210
0.0
220
0.0
230
1.0
 40
0.606339
 41
3.1415926973011858
 42
9.4247780044807712
  0
ELLIPSE
  5
122
100
AcDbEntity
  8
0
370
           0
  6
Continuous
 62
           7
 48
0.20000000298
100
AcDbEllipse
 10
415.347646
 20
-88.690382
 30
0.0
 11
2.1595368385314941
 21
0.0
 31
0.0
210
0.0
220
0.0
230
1.0
 40
0.5
 41
0.0
 42
6.2831853071795862
  0
ELLIPSE
  5
123
100
AcDbEntity
  8
0
370
           0
  6
Continuous
 62
           7
 48
0.20000000298
100
AcDbEllipse
 10
412.53515
 20
-90.163599
 30
0.0
 11
1.7868352206622358
 21
-1.7868304564016644
 31
0.0
210
0.0
220
0.0
230
1.0
 40
0.5
 41
0.0
 42
6.2831853071795756
  0
ELLIPSE
  5
124
100
AcDbEntity
  8
0
370
           0
  6
Continuous
 62
           7
 48
0.20000000298
100
AcDbEllipse
 10
419.365512
 20
-88.556456
 30
0.0
 11
1.5956910730969227
 21
2.0212086092574197
 31
0.0
210
0.0
220
0.0
230
1.0
 40
0.66195
 41
0.0
 42
6.2831853071795809
  0
ELLIPSE
  5
125
100
AcDbEntity
  8
0
370
           0
  6
Continuous
 62
           7
 48
0.20000000298
100
AcDbEllipse
 10
416.860336
 20
-85.607237
 30
0.0
 11
2.9069681167602539
 21
0.0
 31
0.0
210
0.0
220
0.0
230
1.0
 40
0.553818
 41
0.0
 42
6.2831853071795862
  0
ELLIPSE
  5
126
100
AcDbEntity
  8
0
370
           0
  6
Continuous
 62
           7
 48
0.20000000298
100
AcDbEllipse
 10
412.373841
 20
-86.547522
 30
0.0
 11
1.7751260995864868
 21
0.0
 31
0.0
210
0.0
220
0.0
230
1.0
 40
0.982698
 41
0.0
 42
6.2831853071795862
  0
ELLIPSE
  5
127
100
AcDbEntity
  8
0
370
           0
  6
Continuous
 62
           7
 48
0.20000000298
100
AcDbEllipse
 10
412.481471
 20
-83.735018
 30
0.0
 11
2.0117795467376709
 21
0.0
 31
0.0
210
0.0
220
0.0
230
1.0
 40
0.519946
 41
0.0
 42
6.2831853071795862
  0
ELLIPSE
  5
128
100
AcDbEntity
  8
0
370
           0
  6
Continuous
 62
           7
 48
0.20000000298
100
AcDbEllipse
 10
420.263738
 20
-83.222316
 30
0.0
 11
0.0886561570043987
 21
-2.2994599981810331
 31
0.0
210
0.0
220
0.0
230
1.0
 40
0.44721
 41
0.0175717631962666
 42
6.3007570703758526
  0
ELLIPSE
  5
129
100
AcDbEntity
  8
0
370
           0
  6
Continuous
 62
           7
 48
0.20000000298
100
AcDbEllipse
 10
417.830191
 20
-81.834036
 30
0.0
 11
1.596102841260022
 21
2.1584099345697569
 31
0.0
210
0.0
220
0.0
230
1.0
 40
0.502151
 41
0.0090115303173583
 42
6.2921968374969444
  0
ELLIPSE
  5
12A
100
AcDbEntity
  8
0
370
           0
  6
Continuous
 62
           7
 48
0.20000000298
100
AcDbEllipse
 10
413.472649
 20
-80.654656
 30
0.0
 11
2.861051518989643
 21
-1.2137792391874014
 31
0.0
210
0.0
220
0.0
230
1.0
 40
0.633707
 41
0.0
 42
6.2831853071796013
  0
ELLIPSE
  5
12B
100
AcDbEntity
  8
0
370
           0
  6
Continuous
 62
           7
 48
0.20000000298
100
AcDbEllipse
 10
416.35212
 20
-77.909116
 30
0.0
 11
1.7862027160049856
 21
1.033563612665326
 31
0.0
210
0.0
220
0.0
230
1.0
 40
0.737298
 41
-2.5814661979675106
 42
3.7017191092120756
  0
ELLIPSE
  5
12C
100
AcDbEntity
  8
0
370
           0
  6
Continuous
 62
           7
 48
0.20000000298
100
AcDbEllipse
 10
419.767304
 20
-77.97608
 30
0.0
 11
0.9737369586328213
 21
-1.8056777929590708
 31
0.0
210
0.0
220
0.0
230
1.0
 40
0.72704
 41
-0.2804706533762928
 42
6.0027146538032934
  0
ELLIPSE
  5
12D
100
AcDbEntity
  8
0
370
           0
  6
Continuous
 62
           7
 48
0.20000000298
100
AcDbEllipse
 10
412.535145
 20
-75.431433
 30
0.0
 11
0.3585637439965705
 21
-3.1745139195160408
 31
0.0
210
0.0
220
0.0
230
1.0
 40
0.606339
 41
3.1415926973011858
 42
9.4247780044807712
  0
LINE
  5
12E
100
AcDbEntity
  8
0
370
           0
  6
Continuous
 62
           7
 48
0.20000000298
100
AcDbLine
 10
451.240565
 20
-67.429189
 30
0.0
 11
454.053069
 21
-72.250624
 31
0.0
  0
LINE
  5
12F
100
AcDbEntity
  8
0
370
           0
  6
Continuous
 62
           7
 48
0.20000000298
100
AcDbLine
 10
450.570918
 20
-67.563118
 30
0.0
 11
453.249494
 21
-72.250625
 31
0.0
  0
LINE
  5
130
100
AcDbEntity
  8
0
370
           0
  6
Continuous
 62
           7
 48
0.20000000298
100
AcDbLine
 10
449.767345
 20
-67.563118
 30
0.0
 11
452.445921
 21
-72.250625
 31
0.0
  0
LINE
  5
131
100
AcDbEntity
  8
0
370
           0
  6
Continuous
 62
           7
 48
0.20000000298
100
AcDbLine
 10
431.686961
 20
-67.429189
 30
0.0
 11
434.767323
 21
-72.250625
 31
0.0
  0
LINE
  5
132
100
AcDbEntity
  8
0
370
           0
  6
Continuous
 62
           7
 48
0.20000000298
100
AcDbLine
 10
430.883388
 20
-67.429189
 30
0.0
 11
433.829821
 21
-72.116696
 31
0.0
  0
LINE
  5
133
100
AcDbEntity
  8
0
370
           0
  6
Continuous
 62
           7
 48
0.20000000298
100
AcDbLine
 10
429.945887
 20
-67.429189
 30
0.0
 11
433.026249
 21
-72.384554
 31
0.0
  0
LINE
  5
134
100
AcDbEntity
  8
0
370
           0
  6
Continuous
 62
           7
 48
0.20000000298
100
AcDbLine
 10
414.410151
 20
-67.429188
 30
0.0
 11
417.222655
 21
-72.250624
 31
0.0
  0
LINE
  5
135
100
AcDbEntity
  8
0
370
           0
  6
Continuous
 62
           7
 48
0.20000000298
100
AcDbLine
 10
413.740504
 20
-67.563117
 30
0.0
 11
416.419079
 21
-72.250625
 31
0.0
  0
LINE
  5
136
100
AcDbEntity
  8
0
370
           0
  6
Continuous
 62
           7
 48
0.20000000298
100
AcDbLine
 10
412.936931
 20
-67.563117
 30
0.0
 11
415.615507
 21
-72.250625
 31
0.0
  0
LINE
  5
137
100
AcDbEntity
  8
0
370
           0
  6
Continuous
 62
           7
 48
0.20000000298
100
AcDbLine
 10
460.146826
 20
-18.344289
 30
0.0
 11
468.852197
 21
-26.647874
 31
0.0
  0
LINE
  5
138
100
AcDbEntity
  8
0
370
           0
  6
Continuous
 62
           7
 48
0.20000000298
100
AcDbLine
 10
460.34772
 20
-17.808574
 30
0.0
 11
468.785234
 21
-25.710372
 31
0.0
  0
LINE
  5
139
100
AcDbEntity
  8
0
370
           0
  6
Continuous
 62
           7
 48
0.20000000298
100
AcDbLine
 10
460.749507
 20
-17.406788
 30
0.0
 11
468.919163
 21
-25.174657
 31
0.0
  0
LINE
  5
13A
100
AcDbEntity
  8
0
370
           0
  6
Continuous
 62
           7
 48
0.20000000298
100
AcDbLine
 10
396.748289
 20
-17.540716
 30
0.0
 11
405.45366
 21
-25.97823
 31
0.0
  0
LINE
  5
13B
100
AcDbEntity
  8
0
370
           0
  6
Continuous
 62
           7
 48
0.20000000298
100
AcDbLine
 10
397.417933
 20
-17.272859
 30
0.0
 11
405.721517
 21
-25.308586
 31
0.0
  0
LINE
  5
13C
100
AcDbEntity
  8
0
370
           0
  6
Continuous
 62
           7
 48
0.20000000298
100
AcDbLine
 10
398.221505
 20
-17.13893
 30
0.0
 11
405.587589
 21
-24.237156
 31
0.0
  0
LWPOLYLINE
  5
13D
100
AcDbEntity
  8
0
370
           0
  6
Continuous
 62
           7
 48
0.20000000298
100
AcDbPolyline
 90
        4
 70
           1
 10
455.275167
 20
-23.567512
 10
459.828746
 20
-23.567512
 10
459.828746
 20
-21.960366
 10
455.275167
 20
-21.960366
  0
LWPOLYLINE
  5
13E
100
AcDbEntity
  8
0
370
           0
  6
Continuous
 62
           7
 48
0.20000000298
100
AcDbPolyline
 90
        4
 70
           1
 10
405.855446
 20
-23.165725
 10
410.409025
 20
-23.165725
 10
410.409025
 20
-21.826438
 10
405.855446
 20
-21.826438
  0
LINE
  5
13F
100
AcDbEntity
  8
0
370
           0
  6
Continuous
 62
           7
 48
0.20000000298
100
AcDbLine
 10
458.757316
 20
-15.933571
 30
0.0
 11
459.828746
 21
-21.826438
 31
0.0
  0
LINE
  5
140
100
AcDbEntity
  8
0
370
           0
  6
Continuous
 62
           7
 48
0.20000000298
100
AcDbLine
 10
457.284099
 20
-21.960366
 30
0.0
 11
458.757316
 21
-15.933571
 31
0.0
  0
LINE
  5
141
100
AcDbEntity
  8
0
370
           0
  6
Continuous
 62
           7
 48
0.20000000298
100
AcDbLine
 10
455.409096
 20
-17.406788
 30
0.0
 11
457.284099
 21
-21.960366
 31
0.0
  0
LINE
  5
142
100
AcDbEntity
  8
0
370
           0
  6
Continuous
 62
           7
 48
0.20000000298
100
AcDbLine
 10
455.275168
 20
-21.826438
 30
0.0
 11
455.409096
 21
-17.406788
 31
0.0
  0
LINE
  5
143
100
AcDbEntity
  8
0
370
           0
  6
Continuous
 62
           7
 48
0.20000000298
100
AcDbLine
 10
410.141167
 20
-17.406788
 30
0.0
 11
410.409025
 21
-21.692509
 31
0.0
  0
LINE
  5
144
100
AcDbEntity
  8
0
370
           0
  6
Continuous
 62
           7
 48
0.20000000298
100
AcDbLine
 10
407.998307
 20
-21.55858
 30
0.0
 11
410.141167
 21
-17.406788
 31
0.0
  0
LINE
  5
145
100
AcDbEntity
  8
0
370
           0
  6
Continuous
 62
           7
 48
0.20000000298
100
AcDbLine
 10
407.59652
 20
-16.0675
 30
0.0
 11
407.998307
 21
-21.692509
 31
0.0
  0
LINE
  5
146
100
AcDbEntity
  8
0
370
           0
  6
Continuous
 62
           7
 48
0.20000000298
100
AcDbLine
 10
405.855446
 20
-21.692509
 30
0.0
 11
407.462592
 21
-16.0675
 31
0.0
  0
LINE
  5
147
100
AcDbEntity
  8
0
370
           0
  6
HIDDEN
 62
           7
 48
0.20000000298
100
AcDbLine
 10
448.042455
 20
-67.630082
 30
0.0
 11
448.042455
 21
-72.18366
 31
0.0
  0
LINE
  5
148
100
AcDbEntity
  8
0
370
           0
  6
HIDDEN
 62
           7
 48
0.20000000298
100
AcDbLine
 10
436.95468
 20
-67.44071
 30
0.0
 11
436.95468
 21
-72.191753
 31
0.0
  0
LINE
  5
149
100
AcDbEntity
  8
0
370
           0
  6
Continuous
 62
           7
 48
0.20000000298
100
AcDbLine
 10
449.050437
 20
-67.44071
 30
0.0
 11
455.281585
 21
-67.44071
 31
0.0
  0
LINE
  5
14A
100
AcDbEntity
  8
0
370
           0
  6
HIDDEN
 62
           7
 48
0.20000000298
100
AcDbLine
 10
436.404872
 20
-67.44071
 30
0.0
 11
449.600244
 21
-67.44071
 31
0.0
  0
LINE
  5
14B
100
AcDbEntity
  8
0
370
           0
  6
Continuous
 62
           7
 48
0.20000000298
100
AcDbLine
 10
428.661745
 20
-64.060161
 30
0.0
 11
428.661745
 21
-104.135375
 31
0.0
  0
LINE
  5
14C
100
AcDbEntity
  8
0
370
           0
  6
Continuous
 62
           7
 48
0.20000000298
100
AcDbLine
 10
421.331
 20
-64.357326
 30
0.0
 11
421.331
 21
-104.135371
 31
0.0
  0
SOLID
  5
14D
100
AcDbEntity
  8
0
  6
Continuous
 62
           7
 48
0.20000000298
100
AcDbTrace
 10
421.330995
 20
-62.552619
 30
0.0
 11
428.661753
 21
-62.552619
 31
0.0
 12
421.330995
 22
-64.19721
 32
0.0
 13
428.661753
 23
-64.19721
 33
0.0
  0
LINE
  5
14E
100
AcDbEntity
  8
0
370
           0
  6
Continuous
 62
           7
 48
0.20000000298
100
AcDbLine
 10
410.208853
 20
-72.191753
 30
0.0
 11
455.293042
 21
-72.191753
 31
0.0
  0
LINE
  5
14F
100
AcDbEntity
  8
0
370
           0
  6
Continuous
 62
           7
 48
0.20000000298
100
AcDbLine
 10
410.208853
 20
-67.44071
 30
0.0
 11
436.599598
 21
-67.44071
 31
0.0
  0
LINE
  5
150
100
AcDbEntity
  8
0
370
           0
  6
Continuous
 62
           7
 48
0.20000000298
100
AcDbLine
 10
468.854951
 20
-17.372029
 30
0.0
 11
460.424574
 21
-16.275635
 31
0.0
  0
LINE
  5
151
100
AcDbEntity
  8
0
370
           0
  6
Continuous
 62
           7
 48
0.20000000298
100
AcDbLine
 10
468.854951
 20
-29.066904
 30
0.0
 11
468.854951
 21
-17.372029
 31
0.0
  0
LINE
  5
152
100
AcDbEntity
  8
0
370
           0
  6
Continuous
 62
           7
 48
0.20000000298
100
AcDbLine
 10
459.691498
 20
-29.066904
 30
0.0
 11
468.854951
 21
-29.066904
 31
0.0
  0
LINE
  5
153
100
AcDbEntity
  8
0
370
           0
  6
Continuous
 62
           7
 48
0.20000000298
100
AcDbLine
 10
396.646944
 20
-17.372029
 30
0.0
 11
403.611168
 21
-15.91017
 31
0.0
  0
LINE
  5
154
100
AcDbEntity
  8
0
370
           0
  6
Continuous
 62
           7
 48
0.20000000298
100
AcDbLine
 10
396.646944
 20
-28.701439
 30
0.0
 11
396.646944
 21
-17.372029
 31
0.0
  0
LINE
  5
155
100
AcDbEntity
  8
0
370
           0
  6
Continuous
 62
           7
 48
0.20000000298
100
AcDbLine
 10
405.810396
 20
-28.701439
 30
0.0
 11
396.635491
 21
-28.701439
 31
0.0
  0
LINE
  5
156
100
AcDbEntity
  8
0
370
           0
  6
Continuous
 62
           7
 48
0.20000000298
100
AcDbLine
 10
410.208853
 20
-17.372029
 30
0.0
 11
455.65958
 21
-17.372029
 31
0.0
  0
LINE
  5
157
100
AcDbEntity
  8
0
370
           0
  6
Continuous
 62
           7
 48
0.20000000298
100
AcDbLine
 10
461.52419
 20
-12.986451
 30
0.0
 11
486.033405
 21
-12.986451
 31
0.0
  0
LINE
  5
158
100
AcDbEntity
  8
0
370
           0
  6
Continuous
 62
           7
 48
0.20000000298
100
AcDbLine
 10
402.145012
 20
-12.986451
 30
0.0
 11
377.190008
 21
-12.986451
 31
0.0
  0
SOLID
  5
159
100
AcDbEntity
  8
0
  6
Continuous
 62
           7
 48
0.20000000298
100
AcDbTrace
 10
403.794436
 20
-12.986452
 30
0.0
 11
460.607844
 21
-12.986452
 31
0.0
 12
403.794436
 22
-15.910171
 32
0.0
 13
460.607844
 23
-15.910171
 33
0.0
  0
LWPOLYLINE
  5
15A
102
{ACAD_REACTORS
330
15B
102
}
100
AcDbEntity
  8
0
370
           0
  6
Continuous
 62
           7
 48
0.20000000298
100
AcDbPolyline
 90
        4
 70
           1
 10
455.293042
 20
-23.402201
 10
459.771673
 20
-23.402201
 10
459.771673
 20
-90.67835
 10
455.293042
 20
-90.67835
  0
HATCH
  5
15B
100
AcDbEntity
  8
0
  6
Continuous
 62
           7
 48
0.20000000298
100
AcDbHatch
 10
0.0
 20
0.0
 30
0.0
210
0.0
220
0.0
230
1.0
  2
ANSI34
 70
           0
 71
           1
 91
        1
 92
        3
 72
           0
 73
           1
 93
        4
 10
455.29304200000001
 20
-23.402201000000002
 10
459.77167300000002
 20
-23.402201000000002
 10
459.77167300000002
 20
-90.678349999999995
 10
455.29304200000001
 20
-90.678349999999995
 97
        1
330
15A
 75
           0
 76
           1
 52
0.0
 41
8.0
 77
           0
 78
           4
 53
45.0
 43
0.0
 44
0.0
 45
-4.2426406871192848
 46
4.2426406871192857
 79
           1
 49
8.0
 53
45.0
 43
1.414214
 44
0.0
 45
-4.2426406871192848
 46
4.2426406871192857
 79
           1
 49
8.0
 53
45.0
 43
2.828427
 44
0.0
 45
-4.2426406871192848
 46
4.2426406871192857
 79
           1
 49
8.0
 53
45.0
 43
4.242641
 44
0.0
 45
-4.2426406871192848
 46
4.2426406871192857
 79
           1
 49
8.0
 98
        0
  0
LWPOLYLINE
  5
15C
102
{ACAD_REACTORS
330
15D
102
}
100
AcDbEntity
  8
0
370
           0
  6
Continuous
 62
           7
 48
0.20000000298
100
AcDbPolyline
 90
        4
 70
           1
 10
405.810397
 20
-23.310833
 10
410.432243
 20
-23.310833
 10
410.432243
 20
-90.647727
 10
405.810397
 20
-90.647727
  0
HATCH
  5
15D
100
AcDbEntity
  8
0
  6
Continuous
 62
           7
 48
0.20000000298
100
AcDbHatch
 10
0.0
 20
0.0
 30
0.0
210
0.0
220
0.0
230
1.0
  2
ANSI34
 70
           0
 71
           1
 91
        1
 92
        3
 72
           0
 73
           1
 93
        4
 10
405.81039700000002
 20
-23.310832999999999
 10
410.43224300000003
 20
-23.310832999999999
 10
410.43224300000003
 20
-90.647727000000003
 10
405.81039700000002
 20
-90.647727000000003
 97
        1
330
15C
 75
           0
 76
           1
 52
0.0
 41
8.0
 77
           0
 78
           4
 53
45.0
 43
0.0
 44
0.0
 45
-4.2426406871192848
 46
4.2426406871192857
 79
           1
 49
8.0
 53
45.0
 43
1.414214
 44
0.0
 45
-4.2426406871192848
 46
4.2426406871192857
 79
           1
 49
8.0
 53
45.0
 43
2.828427
 44
0.0
 45
-4.2426406871192848
 46
4.2426406871192857
 79
           1
 49
8.0
 53
45.0
 43
4.242641
 44
0.0
 45
-4.2426406871192848
 46
4.2426406871192857
 79
           1
 49
8.0
 98
        0
  0
LINE
  5
15E
100
AcDbEntity
  8
0
370
           0
  6
Continuous
 62
           7
100
AcDbLine
 10
429.194331
 20
-62.369338
 30
0.0
 11
429.03735
 21
-62.554459
 31
0.0
  0
LINE
  5
15F
100
AcDbEntity
  8
0
370
           0
  6
Continuous
 62
           7
100
AcDbLine
 10
429.194331
 20
-60.925394
 30
0.0
 11
429.03735
 21
-60.740273
 31
0.0
  0
LINE
  5
160
100
AcDbEntity
  8
0
370
           0
  6
Continuous
 62
           7
100
AcDbLine
 10
427.171939
 20
-60.891508
 30
0.0
 11
427.171939
 21
-62.3662
 31
0.0
  0
LINE
  5
161
100
AcDbEntity
  8
0
370
           0
  6
Continuous
 62
           7
100
AcDbLine
 10
427.184976
 20
-62.350826
 30
0.0
 11
427.341957
 21
-62.535947
 31
0.0
  0
LINE
  5
162
100
AcDbEntity
  8
0
370
           0
  6
Continuous
 62
           7
100
AcDbLine
 10
427.184976
 20
-62.350826
 30
0.0
 11
427.027995
 21
-62.535947
 31
0.0
  0
LINE
  5
163
100
AcDbEntity
  8
0
370
           0
  6
Continuous
 62
           7
100
AcDbLine
 10
427.184976
 20
-60.906882
 30
0.0
 11
427.341957
 21
-60.72176
 31
0.0
  0
LINE
  5
164
100
AcDbEntity
  8
0
370
           0
  6
Continuous
 62
           7
100
AcDbLine
 10
427.184976
 20
-60.906882
 30
0.0
 11
427.027995
 21
-60.72176
 31
0.0
  0
LINE
  5
165
100
AcDbEntity
  8
0
370
           0
  6
Continuous
 62
           7
100
AcDbLine
 10
424.911415
 20
-60.928532
 30
0.0
 11
424.911415
 21
-62.403224
 31
0.0
  0
LINE
  5
166
100
AcDbEntity
  8
0
370
           0
  6
Continuous
 62
           7
100
AcDbLine
 10
424.924451
 20
-62.38785
 30
0.0
 11
425.081432
 21
-62.572972
 31
0.0
  0
LINE
  5
167
100
AcDbEntity
  8
0
370
           0
  6
Continuous
 62
           7
100
AcDbLine
 10
424.924451
 20
-62.38785
 30
0.0
 11
424.76747
 21
-62.572972
 31
0.0
  0
LINE
  5
168
100
AcDbEntity
  8
0
370
           0
  6
Continuous
 62
           7
100
AcDbLine
 10
424.924451
 20
-60.943906
 30
0.0
 11
425.081432
 21
-60.758785
 31
0.0
  0
LINE
  5
169
100
AcDbEntity
  8
0
370
           0
  6
Continuous
 62
           7
100
AcDbLine
 10
424.924451
 20
-60.943906
 30
0.0
 11
424.76747
 21
-60.758785
 31
0.0
  0
LINE
  5
16A
100
AcDbEntity
  8
0
370
           0
  6
Continuous
 62
           7
100
AcDbLine
 10
422.682286
 20
-60.91002
 30
0.0
 11
422.682286
 21
-62.384712
 31
0.0
  0
LINE
  5
16B
100
AcDbEntity
  8
0
370
           0
  6
Continuous
 62
           7
100
AcDbLine
 10
422.682286
 20
-60.736311
 30
0.0
 11
422.682286
 21
-60.736311
 31
0.0
  0
LINE
  5
16C
100
AcDbEntity
  8
0
370
           0
  6
Continuous
 62
           7
100
AcDbLine
 10
420.560382
 20
-60.925394
 30
0.0
 11
420.717363
 21
-60.740273
 31
0.0
  0
LINE
  5
16D
100
AcDbEntity
  8
0
370
           0
  6
Continuous
 62
           7
100
AcDbLine
 10
420.560382
 20
-62.369338
 30
0.0
 11
420.717363
 21
-62.554459
 31
0.0
  0
LINE
  5
16E
100
AcDbEntity
  8
0
370
           0
  6
Continuous
 62
           7
100
AcDbLine
 10
422.695323
 20
-62.369338
 30
0.0
 11
422.852303
 21
-62.554459
 31
0.0
  0
LINE
  5
16F
100
AcDbEntity
  8
0
370
           0
  6
Continuous
 62
           7
100
AcDbLine
 10
422.695323
 20
-62.369338
 30
0.0
 11
422.538342
 21
-62.554459
 31
0.0
  0
LINE
  5
170
100
AcDbEntity
  8
0
370
           0
  6
Continuous
 62
           7
100
AcDbLine
 10
422.695323
 20
-60.925394
 30
0.0
 11
422.852303
 21
-60.740273
 31
0.0
  0
LINE
  5
171
100
AcDbEntity
  8
0
370
           0
  6
Continuous
 62
           7
100
AcDbLine
 10
422.695323
 20
-60.925394
 30
0.0
 11
422.538342
 21
-60.740273
 31
0.0
  0
LWPOLYLINE
  5
172
100
AcDbEntity
  8
0
370
           0
  6
Continuous
 62
           7
100
AcDbPolyline
 90
        3
 70
           1
 10
432.587819
 20
-55.165463
 10
432.30935
 20
-53.992653
 10
432.070662
 20
-55.165463
  0
LWPOLYLINE
  5
173
100
AcDbEntity
  8
0
370
           0
  6
Continuous
 62
           7
100
AcDbPolyline
 90
        4
 70
           1
 10
433.980162
 20
-30.630277
 10
435.094038
 20
-30.630277
 10
435.094038
 20
-44.610173
 10
433.980162
 20
-44.610173
  0
LWPOLYLINE
  5
174
100
AcDbEntity
  8
0
370
           0
  6
Continuous
 62
           7
100
AcDbPolyline
 90
        4
 70
           0
 10
433.980163
 20
-56.138896
 10
432.94585
 20
-56.138896
 10
432.94585
 20
-51.963692
 10
433.980163
 20
-51.963692
  0
LINE
  5
175
100
AcDbEntity
  8
0
370
           0
  6
Continuous
 62
           7
100
AcDbLine
 10
434.258631
 20
-52.198254
 30
0.0
 11
434.258631
 21
-55.904334
 31
0.0
  0
LINE
  5
176
100
AcDbEntity
  8
0
370
           0
  6
Continuous
 62
           7
100
AcDbLine
 10
433.980162
 20
-56.138896
 30
0.0
 11
434.258631
 21
-55.904334
 31
0.0
  0
LINE
  5
177
100
AcDbEntity
  8
0
370
           0
  6
Continuous
 62
           7
100
AcDbLine
 10
433.980162
 20
-51.963692
 30
0.0
 11
434.258631
 21
-52.198254
 31
0.0
  0
LINE
  5
178
100
AcDbEntity
  8
0
370
           0
  6
Continuous
 62
           7
100
AcDbLine
 10
434.258631
 20
-54.919173
 30
0.0
 11
432.94585
 21
-54.919173
 31
0.0
  0
LINE
  5
179
100
AcDbEntity
  8
0
370
           0
  6
Continuous
 62
           7
100
AcDbLine
 10
434.258631
 20
-53.136502
 30
0.0
 11
432.94585
 21
-53.136502
 31
0.0
  0
LWPOLYLINE
  5
17A
100
AcDbEntity
  8
0
370
           0
  6
Continuous
 62
           7
100
AcDbPolyline
 90
        4
 70
           1
 10
434.258631
 20
-53.136502
 10
434.417756
 20
-53.136502
 10
434.417756
 20
-54.919173
 10
434.258631
 20
-54.919173
  0
LINE
  5
17B
100
AcDbEntity
  8
0
370
           0
  6
Continuous
 62
           7
100
AcDbLine
 10
432.667381
 20
-52.573553
 30
0.0
 11
432.667381
 21
-55.575947
 31
0.0
  0
LINE
  5
17C
100
AcDbEntity
  8
0
370
           0
  6
Continuous
 62
           7
100
AcDbLine
 10
432.94585
 20
-56.23272
 30
0.0
 11
432.667381
 21
-56.23272
 31
0.0
  0
LINE
  5
17D
100
AcDbEntity
  8
0
370
           0
  6
Continuous
 62
           7
100
AcDbLine
 10
432.94585
 20
-51.869867
 30
0.0
 11
432.94585
 21
-56.23272
 31
0.0
  0
LINE
  5
17E
100
AcDbEntity
  8
0
370
           0
  6
Continuous
 62
           7
100
AcDbLine
 10
432.667381
 20
-51.869867
 30
0.0
 11
432.94585
 21
-51.869867
 31
0.0
  0
LINE
  5
17F
100
AcDbEntity
  8
0
370
           0
  6
Continuous
 62
           7
100
AcDbLine
 10
432.110443
 20
-52.526641
 30
0.0
 11
432.667381
 21
-52.526641
 31
0.0
  0
INSERT
  5
185
100
AcDbEntity
  8
0
  6
Continuous
 62
           7
100
AcDbBlockReference
  2
*E4
 10
0.0
 20
0.0
 30
0.0
1001
TCAD
1000
TC25ExternalObject
1002
{
1000
TCW25DblLine
1000

1070
           0
1071
        0
1040
1.0
1040
0.0
1000
Continuous
1000
0
1070
          21
1071
        4
1071
      178
1010
432.388912
1020
-52.573553
1030
0.0
1071
      178
1010
432.388912
1020
-49.993371
1030
0.0
1071
      178
1010
434.497319
1020
-45.583605
1030
0.0
1071
      178
1010
434.497319
1020
-44.598445
1030
0.0
1070
           3
1071
-2147483641
1070
           0
1000
$DLINEWID
1070
           5
1040
0.5
1000
$DLINEALG
1070
          18
1070
           0
1000
$DLINECS
1070
          18
1070
           0
1000
$DLINECE
1070
          18
1070
           0
1000
$DLINETS
1070
           5
1040
0.0
1000
$DLINETE
1070
           5
1040
0.0
1000
ExplodeScale
1070
           5
1040
1.0
1002
}
  0
LWPOLYLINE
  5
186
100
AcDbEntity
  8
0
370
           0
  6
Continuous
 62
           7
100
AcDbPolyline
 90
        4
 70
           1
 10
432.070662
 20
-52.71429
 10
432.587819
 20
-52.71429
 10
432.587819
 20
-55.24756
 10
432.070662
 20
-55.24756
  0
LWPOLYLINE
  5
187
100
AcDbEntity
  8
0
370
           0
  6
Continuous
 62
           7
100
AcDbPolyline
 90
        4
 70
           1
 10
432.070662
 20
-55.341385
 10
432.667381
 20
-55.341385
 10
432.667381
 20
-57.217881
 10
432.070662
 20
-57.217881
  0
LINE
  5
188
100
AcDbEntity
  8
0
370
           0
  6
Continuous
 62
           7
100
AcDbLine
 10
429.206412
 20
-62.565895
 30
0.0
 11
429.206412
 21
-60.736311
 31
0.0
  0
LINE
  5
189
100
AcDbEntity
  8
0
370
           0
  6
Continuous
 62
           7
100
AcDbLine
 10
420.573879
 20
-62.565895
 30
0.0
 11
429.206412
 21
-62.565895
 31
0.0
  0
LINE
  5
18A
100
AcDbEntity
  8
0
370
           0
  6
Continuous
 62
           7
100
AcDbLine
 10
420.573879
 20
-60.736311
 30
0.0
 11
420.573879
 21
-62.565895
 31
0.0
  0
LINE
  5
18B
100
AcDbEntity
  8
0
370
           0
  6
Continuous
 62
           7
100
AcDbLine
 10
427.177568
 20
-45.747798
 30
0.0
 11
427.177568
 21
-47.624295
 31
0.0
  0
LINE
  5
18C
100
AcDbEntity
  8
0
370
           0
  6
Continuous
 62
           7
100
AcDbLine
 10
427.177568
 20
-47.577382
 30
0.0
 11
427.416255
 21
-47.905769
 31
0.0
  0
LINE
  5
18D
100
AcDbEntity
  8
0
370
           0
  6
Continuous
 62
           7
100
AcDbLine
 10
427.177568
 20
-47.624295
 30
0.0
 11
426.93888
 21
-47.905769
 31
0.0
  0
LINE
  5
18E
100
AcDbEntity
  8
0
370
           0
  6
Continuous
 62
           7
100
AcDbLine
 10
427.177568
 20
-45.747798
 30
0.0
 11
427.456037
 21
-45.513236
 31
0.0
  0
LINE
  5
18F
100
AcDbEntity
  8
0
370
           0
  6
Continuous
 62
           7
100
AcDbLine
 10
426.899099
 20
-45.513236
 30
0.0
 11
427.177568
 21
-45.747798
 31
0.0
  0
LINE
  5
190
100
AcDbEntity
  8
0
370
           0
  6
Continuous
 62
           7
100
AcDbLine
 10
424.910036
 20
-45.747798
 30
0.0
 11
424.910036
 21
-47.624295
 31
0.0
  0
LINE
  5
191
100
AcDbEntity
  8
0
370
           0
  6
Continuous
 62
           7
100
AcDbLine
 10
424.910036
 20
-47.577382
 30
0.0
 11
425.148724
 21
-47.905769
 31
0.0
  0
LINE
  5
192
100
AcDbEntity
  8
0
370
           0
  6
Continuous
 62
           7
100
AcDbLine
 10
424.910036
 20
-47.624295
 30
0.0
 11
424.671349
 21
-47.905769
 31
0.0
  0
LINE
  5
193
100
AcDbEntity
  8
0
370
           0
  6
Continuous
 62
           7
100
AcDbLine
 10
424.910036
 20
-45.747798
 30
0.0
 11
425.188505
 21
-45.513236
 31
0.0
  0
LINE
  5
194
100
AcDbEntity
  8
0
370
           0
  6
Continuous
 62
           7
100
AcDbLine
 10
424.631567
 20
-45.513236
 30
0.0
 11
424.910036
 21
-45.747798
 31
0.0
  0
LINE
  5
195
100
AcDbEntity
  8
0
370
           0
  6
Continuous
 62
           7
100
AcDbLine
 10
422.682286
 20
-45.724342
 30
0.0
 11
422.682286
 21
-47.600839
 31
0.0
  0
LINE
  5
196
100
AcDbEntity
  8
0
370
           0
  6
Continuous
 62
           7
100
AcDbLine
 10
422.682286
 20
-47.553926
 30
0.0
 11
422.920973
 21
-47.882313
 31
0.0
  0
LINE
  5
197
100
AcDbEntity
  8
0
370
           0
  6
Continuous
 62
           7
100
AcDbLine
 10
422.682286
 20
-47.600839
 30
0.0
 11
422.443598
 21
-47.882313
 31
0.0
  0
LINE
  5
198
100
AcDbEntity
  8
0
370
           0
  6
Continuous
 62
           7
100
AcDbLine
 10
422.682286
 20
-45.724342
 30
0.0
 11
422.960755
 21
-45.48978
 31
0.0
  0
LINE
  5
199
100
AcDbEntity
  8
0
370
           0
  6
Continuous
 62
           7
100
AcDbLine
 10
422.403817
 20
-45.48978
 30
0.0
 11
422.682286
 21
-45.724342
 31
0.0
  0
LINE
  5
19A
100
AcDbEntity
  8
0
370
           0
  6
Continuous
 62
           7
100
AcDbLine
 10
420.573879
 20
-47.600839
 30
0.0
 11
420.573879
 21
-45.771255
 31
0.0
  0
LINE
  5
19B
100
AcDbEntity
  8
0
370
           0
  6
Continuous
 62
           7
100
AcDbLine
 10
420.971692
 20
-47.882313
 30
0.0
 11
420.573879
 21
-47.600839
 31
0.0
  0
LINE
  5
19C
100
AcDbEntity
  8
0
370
           0
  6
Continuous
 62
           7
100
AcDbLine
 10
420.573879
 20
-45.771255
 30
0.0
 11
420.971692
 21
-45.48978
 31
0.0
  0
LINE
  5
19D
100
AcDbEntity
  8
0
370
           0
  6
Continuous
 62
           7
100
AcDbLine
 10
429.206412
 20
-47.600839
 30
0.0
 11
429.206412
 21
-45.724342
 31
0.0
  0
LINE
  5
19E
100
AcDbEntity
  8
0
370
           0
  6
Continuous
 62
           7
100
AcDbLine
 10
428.808599
 20
-47.882313
 30
0.0
 11
429.206412
 21
-47.600839
 31
0.0
  0
LINE
  5
19F
100
AcDbEntity
  8
0
370
           0
  6
Continuous
 62
           7
100
AcDbLine
 10
428.808599
 20
-45.48978
 30
0.0
 11
429.206412
 21
-45.771255
 31
0.0
  0
LINE
  5
1A0
100
AcDbEntity
  8
0
370
           0
  6
Continuous
 62
           7
100
AcDbLine
 10
420.215848
 20
-59.751151
 30
0.0
 11
429.604225
 21
-59.751151
 31
0.0
  0
LINE
  5
1A1
100
AcDbEntity
  8
0
370
           0
  6
Continuous
 62
           7
100
AcDbLine
 10
420.215848
 20
-60.407924
 30
0.0
 11
429.604225
 21
-60.407924
 31
0.0
  0
LINE
  5
1A2
100
AcDbEntity
  8
0
370
           0
  6
Continuous
 62
           7
100
AcDbLine
 10
429.604224
 20
-60.361012
 30
0.0
 11
429.206412
 21
-60.736311
 31
0.0
  0
LINE
  5
1A3
100
AcDbEntity
  8
0
370
           0
  6
Continuous
 62
           7
100
AcDbLine
 10
420.573879
 20
-60.736311
 30
0.0
 11
420.215848
 21
-60.407924
 31
0.0
  0
LINE
  5
1A4
100
AcDbEntity
  8
0
370
           0
  6
Continuous
 62
           7
100
AcDbLine
 10
429.206412
 20
-60.736311
 30
0.0
 11
420.573879
 21
-60.736311
 31
0.0
  0
POLYLINE
  5
1A5
100
AcDbEntity
  8
0
370
           0
  6
Continuous
 62
           7
100
AcDb2dPolyline
 66
           1
 10
0.0
 20
0.0
 30
0.0
 70
           4
 75
           6
  0
VERTEX
  5
1A6
100
AcDbEntity
  8
0
  6
Continuous
 62
           7
100
AcDbVertex
100
AcDb2dVertex
 10
421.011473
 20
-47.929225
 30
0.0
 70
          16
  0
VERTEX
  5
1A7
100
AcDbEntity
  8
0
  6
Continuous
 62
           7
100
AcDbVertex
100
AcDb2dVertex
 10
420.494317
 20
-49.524247
 30
0.0
 70
          16
  0
VERTEX
  5
1A8
100
AcDbEntity
  8
0
  6
Continuous
 62
           7
100
AcDbVertex
100
AcDb2dVertex
 10
420.255629
 20
-50.55632
 30
0.0
 70
          16
  0
VERTEX
  5
1A9
100
AcDbEntity
  8
0
  6
Continuous
 62
           7
100
AcDbVertex
100
AcDb2dVertex
 10
420.215848
 20
-51.822955
 30
0.0
 70
          16
  0
VERTEX
  5
1AA
100
AcDbEntity
  8
0
  6
Continuous
 62
           7
100
AcDbVertex
100
AcDb2dVertex
 10
421.011473
 20
-47.929225
 30
0.0
 70
           8
  0
VERTEX
  5
1AB
100
AcDbEntity
  8
0
  6
Continuous
 62
           7
100
AcDbVertex
100
AcDb2dVertex
 10
420.935978164875
 20
-48.164355871375
 30
0.0
 70
           8
  0
VERTEX
  5
1AC
100
AcDbEntity
  8
0
  6
Continuous
 62
           7
100
AcDbVertex
100
AcDb2dVertex
 10
420.864600679
 20
-48.391640641
 30
0.0
 70
           8
  0
VERTEX
  5
1AD
100
AcDbEntity
  8
0
  6
Continuous
 62
           7
100
AcDbVertex
100
AcDb2dVertex
 10
420.797280871625
 20
-48.611677442125
 30
0.0
 70
           8
  0
VERTEX
  5
1AE
100
AcDbEntity
  8
0
  6
Continuous
 62
           7
100
AcDbVertex
100
AcDb2dVertex
 10
420.733959072
 20
-48.825064408
 30
0.0
 70
           8
  0
VERTEX
  5
1AF
100
AcDbEntity
  8
0
  6
Continuous
 62
           7
100
AcDbVertex
100
AcDb2dVertex
 10
420.674575609375
 20
-49.032399671875
 30
0.0
 70
           8
  0
VERTEX
  5
1B0
100
AcDbEntity
  8
0
  6
Continuous
 62
           7
100
AcDbVertex
100
AcDb2dVertex
 10
420.619070813
 20
-49.234281367
 30
0.0
 70
           8
  0
VERTEX
  5
1B1
100
AcDbEntity
  8
0
  6
Continuous
 62
           7
100
AcDbVertex
100
AcDb2dVertex
 10
420.567385012125
 20
-49.431307626625
 30
0.0
 70
           8
  0
VERTEX
  5
1B2
100
AcDbEntity
  8
0
  6
Continuous
 62
           7
100
AcDbVertex
100
AcDb2dVertex
 10
420.519458536
 20
-49.624076584
 30
0.0
 70
           8
  0
VERTEX
  5
1B3
100
AcDbEntity
  8
0
  6
Continuous
 62
           7
100
AcDbVertex
100
AcDb2dVertex
 10
420.475231713875
 20
-49.813186372375
 30
0.0
 70
           8
  0
VERTEX
  5
1B4
100
AcDbEntity
  8
0
  6
Continuous
 62
           7
100
AcDbVertex
100
AcDb2dVertex
 10
420.434644875
 20
-49.999235125
 30
0.0
 70
           8
  0
VERTEX
  5
1B5
100
AcDbEntity
  8
0
  6
Continuous
 62
           7
100
AcDbVertex
100
AcDb2dVertex
 10
420.397638348625
 20
-50.182820975125
 30
0.0
 70
           8
  0
VERTEX
  5
1B6
100
AcDbEntity
  8
0
  6
Continuous
 62
           7
100
AcDbVertex
100
AcDb2dVertex
 10
420.364152464
 20
-50.364542056
 30
0.0
 70
           8
  0
VERTEX
  5
1B7
100
AcDbEntity
  8
0
  6
Continuous
 62
           7
100
AcDbVertex
100
AcDb2dVertex
 10
420.334127550375
 20
-50.544996500875
 30
0.0
 70
           8
  0
VERTEX
  5
1B8
100
AcDbEntity
  8
0
  6
Continuous
 62
           7
100
AcDbVertex
100
AcDb2dVertex
 10
420.307503937
 20
-50.724782443
 30
0.0
 70
           8
  0
VERTEX
  5
1B9
100
AcDbEntity
  8
0
  6
Continuous
 62
           7
100
AcDbVertex
100
AcDb2dVertex
 10
420.284221953125
 20
-50.904498015625
 30
0.0
 70
           8
  0
VERTEX
  5
1BA
100
AcDbEntity
  8
0
  6
Continuous
 62
           7
100
AcDbVertex
100
AcDb2dVertex
 10
420.264221928
 20
-51.084741352
 30
0.0
 70
           8
  0
VERTEX
  5
1BB
100
AcDbEntity
  8
0
  6
Continuous
 62
           7
100
AcDbVertex
100
AcDb2dVertex
 10
420.247444190875
 20
-51.266110585375
 30
0.0
 70
           8
  0
VERTEX
  5
1BC
100
AcDbEntity
  8
0
  6
Continuous
 62
           7
100
AcDbVertex
100
AcDb2dVertex
 10
420.233829071
 20
-51.449203849
 30
0.0
 70
           8
  0
VERTEX
  5
1BD
100
AcDbEntity
  8
0
  6
Continuous
 62
           7
100
AcDbVertex
100
AcDb2dVertex
 10
420.223316897625
 20
-51.634619276125
 30
0.0
 70
           8
  0
VERTEX
  5
1BE
100
AcDbEntity
  8
0
  6
Continuous
 62
           7
100
AcDbVertex
100
AcDb2dVertex
 10
420.215848
 20
-51.822955
 30
0.0
 70
           8
  0
SEQEND
  5
1BF
100
AcDbEntity
  8
0
  6
Continuous
 62
           7
  0
LINE
  5
1C0
100
AcDbEntity
  8
0
370
           0
  6
Continuous
 62
           7
100
AcDbLine
 10
420.215848
 20
-60.407924
 30
0.0
 11
420.215848
 21
-51.72913
 31
0.0
  0
POLYLINE
  5
1C1
100
AcDbEntity
  8
0
370
           0
  6
Continuous
 62
           7
100
AcDb2dPolyline
 66
           1
 10
0.0
 20
0.0
 30
0.0
 70
           4
 75
           6
  0
VERTEX
  5
1C2
100
AcDbEntity
  8
0
  6
Continuous
 62
           7
100
AcDbVertex
100
AcDb2dVertex
 10
432.070662
 20
-56.244449
 30
0.0
 70
          16
  0
VERTEX
  5
1C3
100
AcDbEntity
  8
0
  6
Continuous
 62
           7
100
AcDbVertex
100
AcDb2dVertex
 10
431.434162
 20
-56.244449
 30
0.0
 70
          16
  0
VERTEX
  5
1C4
100
AcDbEntity
  8
0
  6
Continuous
 62
           7
100
AcDbVertex
100
AcDb2dVertex
 10
430.837443
 20
-56.338273
 30
0.0
 70
          16
  0
VERTEX
  5
1C5
100
AcDbEntity
  8
0
  6
Continuous
 62
           7
100
AcDbVertex
100
AcDb2dVertex
 10
430.240724
 20
-56.479011
 30
0.0
 70
          16
  0
VERTEX
  5
1C6
100
AcDbEntity
  8
0
  6
Continuous
 62
           7
100
AcDbVertex
100
AcDb2dVertex
 10
429.962256
 20
-56.760485
 30
0.0
 70
          16
  0
VERTEX
  5
1C7
100
AcDbEntity
  8
0
  6
Continuous
 62
           7
100
AcDbVertex
100
AcDb2dVertex
 10
429.723568
 20
-57.276521
 30
0.0
 70
          16
  0
VERTEX
  5
1C8
100
AcDbEntity
  8
0
  6
Continuous
 62
           7
100
AcDbVertex
100
AcDb2dVertex
 10
429.604224
 20
-57.980207
 30
0.0
 70
          16
  0
VERTEX
  5
1C9
100
AcDbEntity
  8
0
  6
Continuous
 62
           7
100
AcDbVertex
100
AcDb2dVertex
 10
429.604224
 20
-59.903616
 30
0.0
 70
          16
  0
VERTEX
  5
1CA
100
AcDbEntity
  8
0
  6
Continuous
 62
           7
100
AcDbVertex
100
AcDb2dVertex
 10
429.604224
 20
-60.419652
 30
0.0
 70
          16
  0
VERTEX
  5
1CB
100
AcDbEntity
  8
0
  6
Continuous
 62
           7
100
AcDbVertex
100
AcDb2dVertex
 10
432.070662
 20
-56.244449
 30
0.0
 70
           8
  0
VERTEX
  5
1CC
100
AcDbEntity
  8
0
  6
Continuous
 62
           7
100
AcDbVertex
100
AcDb2dVertex
 10
431.97768700201
 20
-56.244794976042
 30
0.0
 70
           8
  0
VERTEX
  5
1CD
100
AcDbEntity
  8
0
  6
Continuous
 62
           7
100
AcDbVertex
100
AcDb2dVertex
 10
431.889567801083
 20
-56.245809448333
 30
0.0
 70
           8
  0
VERTEX
  5
1CE
100
AcDbEntity
  8
0
  6
Continuous
 62
           7
100
AcDbVertex
100
AcDb2dVertex
 10
431.806088086781
 20
-56.247457233125
 30
0.0
 70
           8
  0
VERTEX
  5
1CF
100
AcDbEntity
  8
0
  6
Continuous
 62
           7
100
AcDbVertex
100
AcDb2dVertex
 10
431.727031548667
 20
-56.249703146667
 30
0.0
 70
           8
  0
VERTEX
  5
1D0
100
AcDbEntity
  8
0
  6
Continuous
 62
           7
100
AcDbVertex
100
AcDb2dVertex
 10
431.652181876302
 20
-56.252512005208
 30
0.0
 70
           8
  0
VERTEX
  5
1D1
100
AcDbEntity
  8
0
  6
Continuous
 62
           7
100
AcDbVertex
100
AcDb2dVertex
 10
431.58132275925
 20
-56.255848625
 30
0.0
 70
           8
  0
VERTEX
  5
1D2
100
AcDbEntity
  8
0
  6
Continuous
 62
           7
100
AcDbVertex
100
AcDb2dVertex
 10
431.514237887073
 20
-56.259677822292
 30
0.0
 70
           8
  0
VERTEX
  5
1D3
100
AcDbEntity
  8
0
  6
Continuous
 62
           7
100
AcDbVertex
100
AcDb2dVertex
 10
431.450710949333
 20
-56.263964413333
 30
0.0
 70
           8
  0
VERTEX
  5
1D4
100
AcDbEntity
  8
0
  6
Continuous
 62
           7
100
AcDbVertex
100
AcDb2dVertex
 10
431.390525635594
 20
-56.268673214375
 30
0.0
 70
           8
  0
VERTEX
  5
1D5
100
AcDbEntity
  8
0
  6
Continuous
 62
           7
100
AcDbVertex
100
AcDb2dVertex
 10
431.333465635417
 20
-56.273769041667
 30
0.0
 70
           8
  0
VERTEX
  5
1D6
100
AcDbEntity
  8
0
  6
Continuous
 62
           7
100
AcDbVertex
100
AcDb2dVertex
 10
431.279314638365
 20
-56.279216711458
 30
0.0
 70
           8
  0
VERTEX
  5
1D7
100
AcDbEntity
  8
0
  6
Continuous
 62
           7
100
AcDbVertex
100
AcDb2dVertex
 10
431.227856334
 20
-56.28498104
 30
0.0
 70
           8
  0
VERTEX
  5
1D8
100
AcDbEntity
  8
0
  6
Continuous
 62
           7
100
AcDbVertex
100
AcDb2dVertex
 10
431.178874411885
 20
-56.291026843542
 30
0.0
 70
           8
  0
VERTEX
  5
1D9
100
AcDbEntity
  8
0
  6
Continuous
 62
           7
100
AcDbVertex
100
AcDb2dVertex
 10
431.132152561583
 20
-56.297318938333
 30
0.0
 70
           8
  0
VERTEX
  5
1DA
100
AcDbEntity
  8
0
  6
Continuous
 62
           7
100
AcDbVertex
100
AcDb2dVertex
 10
431.087474472656
 20
-56.303822140625
 30
0.0
 70
           8
  0
VERTEX
  5
1DB
100
AcDbEntity
  8
0
  6
Continuous
 62
           7
100
AcDbVertex
100
AcDb2dVertex
 10
431.044623834667
 20
-56.310501266667
 30
0.0
 70
           8
  0
VERTEX
  5
1DC
100
AcDbEntity
  8
0
  6
Continuous
 62
           7
100
AcDbVertex
100
AcDb2dVertex
 10
431.003384337177
 20
-56.317321132708
 30
0.0
 70
           8
  0
VERTEX
  5
1DD
100
AcDbEntity
  8
0
  6
Continuous
 62
           7
100
AcDbVertex
100
AcDb2dVertex
 10
430.96353966975
 20
-56.324246555
 30
0.0
 70
           8
  0
VERTEX
  5
1DE
100
AcDbEntity
  8
0
  6
Continuous
 62
           7
100
AcDbVertex
100
AcDb2dVertex
 10
430.924873521948
 20
-56.331242349792
 30
0.0
 70
           8
  0
VERTEX
  5
1DF
100
AcDbEntity
  8
0
  6
Continuous
 62
           7
100
AcDbVertex
100
AcDb2dVertex
 10
430.887169583333
 20
-56.338273333333
 30
0.0
 70
           8
  0
VERTEX
  5
1E0
100
AcDbEntity
  8
0
  6
Continuous
 62
           7
100
AcDbVertex
100
AcDb2dVertex
 10
430.850248009615
 20
-56.345313117792
 30
0.0
 70
           8
  0
VERTEX
  5
1E1
100
AcDbEntity
  8
0
  6
Continuous
 62
           7
100
AcDbVertex
100
AcDb2dVertex
 10
430.814074821083
 20
-56.352370499
 30
0.0
 70
           8
  0
VERTEX
  5
1E2
100
AcDbEntity
  8
0
  6
Continuous
 62
           7
100
AcDbVertex
100
AcDb2dVertex
 10
430.778652504177
 20
-56.359463068708
 30
0.0
 70
           8
  0
VERTEX
  5
1E3
100
AcDbEntity
  8
0
  6
Continuous
 62
           7
100
AcDbVertex
100
AcDb2dVertex
 10
430.743983545333
 20
-56.366608418667
 30
0.0
 70
           8
  0
VERTEX
  5
1E4
100
AcDbEntity
  8
0
  6
Continuous
 62
           7
100
AcDbVertex
100
AcDb2dVertex
 10
430.71007043099
 20
-56.373824140625
 30
0.0
 70
           8
  0
VERTEX
  5
1E5
100
AcDbEntity
  8
0
  6
Continuous
 62
           7
100
AcDbVertex
100
AcDb2dVertex
 10
430.676915647583
 20
-56.381127826333
 30
0.0
 70
           8
  0
VERTEX
  5
1E6
100
AcDbEntity
  8
0
  6
Continuous
 62
           7
100
AcDbVertex
100
AcDb2dVertex
 10
430.644521681552
 20
-56.388537067542
 30
0.0
 70
           8
  0
VERTEX
  5
1E7
100
AcDbEntity
  8
0
  6
Continuous
 62
           7
100
AcDbVertex
100
AcDb2dVertex
 10
430.612891019333
 20
-56.396069456
 30
0.0
 70
           8
  0
VERTEX
  5
1E8
100
AcDbEntity
  8
0
  6
Continuous
 62
           7
100
AcDbVertex
100
AcDb2dVertex
 10
430.582026147365
 20
-56.403742583458
 30
0.0
 70
           8
  0
VERTEX
  5
1E9
100
AcDbEntity
  8
0
  6
Continuous
 62
           7
100
AcDbVertex
100
AcDb2dVertex
 10
430.551929552083
 20
-56.411574041667
 30
0.0
 70
           8
  0
VERTEX
  5
1EA
100
AcDbEntity
  8
0
  6
Continuous
 62
           7
100
AcDbVertex
100
AcDb2dVertex
 10
430.522603719927
 20
-56.419581422375
 30
0.0
 70
           8
  0
VERTEX
  5
1EB
100
AcDbEntity
  8
0
  6
Continuous
 62
           7
100
AcDbVertex
100
AcDb2dVertex
 10
430.494051137333
 20
-56.427782317333
 30
0.0
 70
           8
  0
VERTEX
  5
1EC
100
AcDbEntity
  8
0
  6
Continuous
 62
           7
100
AcDbVertex
100
AcDb2dVertex
 10
430.46627429074
 20
-56.436194318292
 30
0.0
 70
           8
  0
VERTEX
  5
1ED
100
AcDbEntity
  8
0
  6
Continuous
 62
           7
100
AcDbVertex
100
AcDb2dVertex
 10
430.439275666583
 20
-56.444835017
 30
0.0
 70
           8
  0
VERTEX
  5
1EE
100
AcDbEntity
  8
0
  6
Continuous
 62
           7
100
AcDbVertex
100
AcDb2dVertex
 10
430.413057751302
 20
-56.453722005208
 30
0.0
 70
           8
  0
VERTEX
  5
1EF
100
AcDbEntity
  8
0
  6
Continuous
 62
           7
100
AcDbVertex
100
AcDb2dVertex
 10
430.387623031333
 20
-56.462872874667
 30
0.0
 70
           8
  0
VERTEX
  5
1F0
100
AcDbEntity
  8
0
  6
Continuous
 62
           7
100
AcDbVertex
100
AcDb2dVertex
 10
430.362973993115
 20
-56.472305217125
 30
0.0
 70
           8
  0
VERTEX
  5
1F1
100
AcDbEntity
  8
0
  6
Continuous
 62
           7
100
AcDbVertex
100
AcDb2dVertex
 10
430.339113123083
 20
-56.482036624333
 30
0.0
 70
           8
  0
VERTEX
  5
1F2
100
AcDbEntity
  8
0
  6
Continuous
 62
           7
100
AcDbVertex
100
AcDb2dVertex
 10
430.316042907677
 20
-56.492084688042
 30
0.0
 70
           8
  0
VERTEX
  5
1F3
100
AcDbEntity
  8
0
  6
Continuous
 62
           7
100
AcDbVertex
100
AcDb2dVertex
 10
430.293765833333
 20
-56.502467
 30
0.0
 70
           8
  0
VERTEX
  5
1F4
100
AcDbEntity
  8
0
  6
Continuous
 62
           7
100
AcDbVertex
100
AcDb2dVertex
 10
430.272278170604
 20
-56.513200174708
 30
0.0
 70
           8
  0
VERTEX
  5
1F5
100
AcDbEntity
  8
0
  6
Continuous
 62
           7
100
AcDbVertex
100
AcDb2dVertex
 10
430.2515513265
 20
-56.524296917667
 30
0.0
 70
           8
  0
VERTEX
  5
1F6
100
AcDbEntity
  8
0
  6
Continuous
 62
           7
100
AcDbVertex
100
AcDb2dVertex
 10
430.231550492146
 20
-56.535768957125
 30
0.0
 70
           8
  0
VERTEX
  5
1F7
100
AcDbEntity
  8
0
  6
Continuous
 62
           7
100
AcDbVertex
100
AcDb2dVertex
 10
430.212240858667
 20
-56.547628021333
 30
0.0
 70
           8
  0
VERTEX
  5
1F8
100
AcDbEntity
  8
0
  6
Continuous
 62
           7
100
AcDbVertex
100
AcDb2dVertex
 10
430.193587617188
 20
-56.559885838542
 30
0.0
 70
           8
  0
VERTEX
  5
1F9
100
AcDbEntity
  8
0
  6
Continuous
 62
           7
100
AcDbVertex
100
AcDb2dVertex
 10
430.175555958833
 20
-56.572554137
 30
0.0
 70
           8
  0
VERTEX
  5
1FA
100
AcDbEntity
  8
0
  6
Continuous
 62
           7
100
AcDbVertex
100
AcDb2dVertex
 10
430.158111074729
 20
-56.585644644958
 30
0.0
 70
           8
  0
VERTEX
  5
1FB
100
AcDbEntity
  8
0
  6
Continuous
 62
           7
100
AcDbVertex
100
AcDb2dVertex
 10
430.141218156
 20
-56.599169090667
 30
0.0
 70
           8
  0
VERTEX
  5
1FC
100
AcDbEntity
  8
0
  6
Continuous
 62
           7
100
AcDbVertex
100
AcDb2dVertex
 10
430.124842393771
 20
-56.613139202375
 30
0.0
 70
           8
  0
VERTEX
  5
1FD
100
AcDbEntity
  8
0
  6
Continuous
 62
           7
100
AcDbVertex
100
AcDb2dVertex
 10
430.108948979167
 20
-56.627566708333
 30
0.0
 70
           8
  0
VERTEX
  5
1FE
100
AcDbEntity
  8
0
  6
Continuous
 62
           7
100
AcDbVertex
100
AcDb2dVertex
 10
430.093503103313
 20
-56.642463336792
 30
0.0
 70
           8
  0
VERTEX
  5
1FF
100
AcDbEntity
  8
0
  6
Continuous
 62
           7
100
AcDbVertex
100
AcDb2dVertex
 10
430.078469957333
 20
-56.657840816
 30
0.0
 70
           8
  0
VERTEX
  5
200
100
AcDbEntity
  8
0
  6
Continuous
 62
           7
100
AcDbVertex
100
AcDb2dVertex
 10
430.063814732354
 20
-56.673710874208
 30
0.0
 70
           8
  0
VERTEX
  5
201
100
AcDbEntity
  8
0
  6
Continuous
 62
           7
100
AcDbVertex
100
AcDb2dVertex
 10
430.0495026195
 20
-56.690085239667
 30
0.0
 70
           8
  0
VERTEX
  5
202
100
AcDbEntity
  8
0
  6
Continuous
 62
           7
100
AcDbVertex
100
AcDb2dVertex
 10
430.035498809896
 20
-56.706975640625
 30
0.0
 70
           8
  0
VERTEX
  5
203
100
AcDbEntity
  8
0
  6
Continuous
 62
           7
100
AcDbVertex
100
AcDb2dVertex
 10
430.021768494667
 20
-56.724393805333
 30
0.0
 70
           8
  0
VERTEX
  5
204
100
AcDbEntity
  8
0
  6
Continuous
 62
           7
100
AcDbVertex
100
AcDb2dVertex
 10
430.008276864938
 20
-56.742351462042
 30
0.0
 70
           8
  0
VERTEX
  5
205
100
AcDbEntity
  8
0
  6
Continuous
 62
           7
100
AcDbVertex
100
AcDb2dVertex
 10
429.994989111833
 20
-56.760860339
 30
0.0
 70
           8
  0
VERTEX
  5
206
100
AcDbEntity
  8
0
  6
Continuous
 62
           7
100
AcDbVertex
100
AcDb2dVertex
 10
429.981870426479
 20
-56.779932164458
 30
0.0
 70
           8
  0
VERTEX
  5
207
100
AcDbEntity
  8
0
  6
Continuous
 62
           7
100
AcDbVertex
100
AcDb2dVertex
 10
429.968886
 20
-56.799578666667
 30
0.0
 70
           8
  0
VERTEX
  5
208
100
AcDbEntity
  8
0
  6
Continuous
 62
           7
100
AcDbVertex
100
AcDb2dVertex
 10
429.956008482583
 20
-56.819808641833
 30
0.0
 70
           8
  0
VERTEX
  5
209
100
AcDbEntity
  8
0
  6
Continuous
 62
           7
100
AcDbVertex
100
AcDb2dVertex
 10
429.943240360667
 20
-56.840619158
 30
0.0
 70
           8
  0
VERTEX
  5
20A
100
AcDbEntity
  8
0
  6
Continuous
 62
           7
100
AcDbVertex
100
AcDb2dVertex
 10
429.93059157975
 20
-56.862004351167
 30
0.0
 70
           8
  0
VERTEX
  5
20B
100
AcDbEntity
  8
0
  6
Continuous
 62
           7
100
AcDbVertex
100
AcDb2dVertex
 10
429.918072085333
 20
-56.883958357333
 30
0.0
 70
           8
  0
VERTEX
  5
20C
100
AcDbEntity
  8
0
  6
Continuous
 62
           7
100
AcDbVertex
100
AcDb2dVertex
 10
429.905691822917
 20
-56.9064753125
 30
0.0
 70
           8
  0
VERTEX
  5
20D
100
AcDbEntity
  8
0
  6
Continuous
 62
           7
100
AcDbVertex
100
AcDb2dVertex
 10
429.893460738
 20
-56.929549352667
 30
0.0
 70
           8
  0
VERTEX
  5
20E
100
AcDbEntity
  8
0
  6
Continuous
 62
           7
100
AcDbVertex
100
AcDb2dVertex
 10
429.881388776083
 20
-56.953174613833
 30
0.0
 70
           8
  0
VERTEX
  5
20F
100
AcDbEntity
  8
0
  6
Continuous
 62
           7
100
AcDbVertex
100
AcDb2dVertex
 10
429.869485882667
 20
-56.977345232
 30
0.0
 70
           8
  0
VERTEX
  5
210
100
AcDbEntity
  8
0
  6
Continuous
 62
           7
100
AcDbVertex
100
AcDb2dVertex
 10
429.85776200325
 20
-57.002055343167
 30
0.0
 70
           8
  0
VERTEX
  5
211
100
AcDbEntity
  8
0
  6
Continuous
 62
           7
100
AcDbVertex
100
AcDb2dVertex
 10
429.846227083333
 20
-57.027299083333
 30
0.0
 70
           8
  0
VERTEX
  5
212
100
AcDbEntity
  8
0
  6
Continuous
 62
           7
100
AcDbVertex
100
AcDb2dVertex
 10
429.834891068417
 20
-57.0530705885
 30
0.0
 70
           8
  0
VERTEX
  5
213
100
AcDbEntity
  8
0
  6
Continuous
 62
           7
100
AcDbVertex
100
AcDb2dVertex
 10
429.823763904
 20
-57.079363994667
 30
0.0
 70
           8
  0
VERTEX
  5
214
100
AcDbEntity
  8
0
  6
Continuous
 62
           7
100
AcDbVertex
100
AcDb2dVertex
 10
429.812855535583
 20
-57.106173437833
 30
0.0
 70
           8
  0
VERTEX
  5
215
100
AcDbEntity
  8
0
  6
Continuous
 62
           7
100
AcDbVertex
100
AcDb2dVertex
 10
429.802175908667
 20
-57.133493054
 30
0.0
 70
           8
  0
VERTEX
  5
216
100
AcDbEntity
  8
0
  6
Continuous
 62
           7
100
AcDbVertex
100
AcDb2dVertex
 10
429.79173496875
 20
-57.161316979167
 30
0.0
 70
           8
  0
VERTEX
  5
217
100
AcDbEntity
  8
0
  6
Continuous
 62
           7
100
AcDbVertex
100
AcDb2dVertex
 10
429.781542661333
 20
-57.189639349333
 30
0.0
 70
           8
  0
VERTEX
  5
218
100
AcDbEntity
  8
0
  6
Continuous
 62
           7
100
AcDbVertex
100
AcDb2dVertex
 10
429.771608931917
 20
-57.2184543005
 30
0.0
 70
           8
  0
VERTEX
  5
219
100
AcDbEntity
  8
0
  6
Continuous
 62
           7
100
AcDbVertex
100
AcDb2dVertex
 10
429.761943726
 20
-57.247755968667
 30
0.0
 70
           8
  0
VERTEX
  5
21A
100
AcDbEntity
  8
0
  6
Continuous
 62
           7
100
AcDbVertex
100
AcDb2dVertex
 10
429.752556989083
 20
-57.277538489833
 30
0.0
 70
           8
  0
VERTEX
  5
21B
100
AcDbEntity
  8
0
  6
Continuous
 62
           7
100
AcDbVertex
100
AcDb2dVertex
 10
429.743458666667
 20
-57.307796
 30
0.0
 70
           8
  0
VERTEX
  5
21C
100
AcDbEntity
  8
0
  6
Continuous
 62
           7
100
AcDbVertex
100
AcDb2dVertex
 10
429.734657046667
 20
-57.338565149531
 30
0.0
 70
           8
  0
VERTEX
  5
21D
100
AcDbEntity
  8
0
  6
Continuous
 62
           7
100
AcDbVertex
100
AcDb2dVertex
 10
429.726153786667
 20
-57.37005264625
 30
0.0
 70
           8
  0
VERTEX
  5
21E
100
AcDbEntity
  8
0
  6
Continuous
 62
           7
100
AcDbVertex
100
AcDb2dVertex
 10
429.717948886667
 20
-57.402507712344
 30
0.0
 70
           8
  0
VERTEX
  5
21F
100
AcDbEntity
  8
0
  6
Continuous
 62
           7
100
AcDbVertex
100
AcDb2dVertex
 10
429.710042346667
 20
-57.43617957
 30
0.0
 70
           8
  0
VERTEX
  5
220
100
AcDbEntity
  8
0
  6
Continuous
 62
           7
100
AcDbVertex
100
AcDb2dVertex
 10
429.702434166667
 20
-57.471317441406
 30
0.0
 70
           8
  0
VERTEX
  5
221
100
AcDbEntity
  8
0
  6
Continuous
 62
           7
100
AcDbVertex
100
AcDb2dVertex
 10
429.695124346667
 20
-57.50817054875
 30
0.0
 70
           8
  0
VERTEX
  5
222
100
AcDbEntity
  8
0
  6
Continuous
 62
           7
100
AcDbVertex
100
AcDb2dVertex
 10
429.688112886667
 20
-57.546988114219
 30
0.0
 70
           8
  0
VERTEX
  5
223
100
AcDbEntity
  8
0
  6
Continuous
 62
           7
100
AcDbVertex
100
AcDb2dVertex
 10
429.681399786667
 20
-57.58801936
 30
0.0
 70
           8
  0
VERTEX
  5
224
100
AcDbEntity
  8
0
  6
Continuous
 62
           7
100
AcDbVertex
100
AcDb2dVertex
 10
429.674985046667
 20
-57.631513508281
 30
0.0
 70
           8
  0
VERTEX
  5
225
100
AcDbEntity
  8
0
  6
Continuous
 62
           7
100
AcDbVertex
100
AcDb2dVertex
 10
429.668868666667
 20
-57.67771978125
 30
0.0
 70
           8
  0
VERTEX
  5
226
100
AcDbEntity
  8
0
  6
Continuous
 62
           7
100
AcDbVertex
100
AcDb2dVertex
 10
429.663050646667
 20
-57.726887401094
 30
0.0
 70
           8
  0
VERTEX
  5
227
100
AcDbEntity
  8
0
  6
Continuous
 62
           7
100
AcDbVertex
100
AcDb2dVertex
 10
429.657530986667
 20
-57.77926559
 30
0.0
 70
           8
  0
VERTEX
  5
228
100
AcDbEntity
  8
0
  6
Continuous
 62
           7
100
AcDbVertex
100
AcDb2dVertex
 10
429.652309686667
 20
-57.835103570156
 30
0.0
 70
           8
  0
VERTEX
  5
229
100
AcDbEntity
  8
0
  6
Continuous
 62
           7
100
AcDbVertex
100
AcDb2dVertex
 10
429.647386746667
 20
-57.89465056375
 30
0.0
 70
           8
  0
VERTEX
  5
22A
100
AcDbEntity
  8
0
  6
Continuous
 62
           7
100
AcDbVertex
100
AcDb2dVertex
 10
429.642762166667
 20
-57.958155792969
 30
0.0
 70
           8
  0
VERTEX
  5
22B
100
AcDbEntity
  8
0
  6
Continuous
 62
           7
100
AcDbVertex
100
AcDb2dVertex
 10
429.638435946667
 20
-58.02586848
 30
0.0
 70
           8
  0
VERTEX
  5
22C
100
AcDbEntity
  8
0
  6
Continuous
 62
           7
100
AcDbVertex
100
AcDb2dVertex
 10
429.634408086667
 20
-58.098037847031
 30
0.0
 70
           8
  0
VERTEX
  5
22D
100
AcDbEntity
  8
0
  6
Continuous
 62
           7
100
AcDbVertex
100
AcDb2dVertex
 10
429.630678586667
 20
-58.17491311625
 30
0.0
 70
           8
  0
VERTEX
  5
22E
100
AcDbEntity
  8
0
  6
Continuous
 62
           7
100
AcDbVertex
100
AcDb2dVertex
 10
429.627247446667
 20
-58.256743509844
 30
0.0
 70
           8
  0
VERTEX
  5
22F
100
AcDbEntity
  8
0
  6
Continuous
 62
           7
100
AcDbVertex
100
AcDb2dVertex
 10
429.624114666667
 20
-58.34377825
 30
0.0
 70
           8
  0
VERTEX
  5
230
100
AcDbEntity
  8
0
  6
Continuous
 62
           7
100
AcDbVertex
100
AcDb2dVertex
 10
429.621277760333
 20
-58.436123866906
 30
0.0
 70
           8
  0
VERTEX
  5
231
100
AcDbEntity
  8
0
  6
Continuous
 62
           7
100
AcDbVertex
100
AcDb2dVertex
 10
429.618724296
 20
-58.53331612275
 30
0.0
 70
           8
  0
VERTEX
  5
232
100
AcDbEntity
  8
0
  6
Continuous
 62
           7
100
AcDbVertex
100
AcDb2dVertex
 10
429.616439355667
 20
-58.634748087719
 30
0.0
 70
           8
  0
VERTEX
  5
233
100
AcDbEntity
  8
0
  6
Continuous
 62
           7
100
AcDbVertex
100
AcDb2dVertex
 10
429.614408021333
 20
-58.739812832
 30
0.0
 70
           8
  0
VERTEX
  5
234
100
AcDbEntity
  8
0
  6
Continuous
 62
           7
100
AcDbVertex
100
AcDb2dVertex
 10
429.612615375
 20
-58.847903425781
 30
0.0
 70
           8
  0
VERTEX
  5
235
100
AcDbEntity
  8
0
  6
Continuous
 62
           7
100
AcDbVertex
100
AcDb2dVertex
 10
429.611046498667
 20
-58.95841293925
 30
0.0
 70
           8
  0
VERTEX
  5
236
100
AcDbEntity
  8
0
  6
Continuous
 62
           7
100
AcDbVertex
100
AcDb2dVertex
 10
429.609686474333
 20
-59.070734442594
 30
0.0
 70
           8
  0
VERTEX
  5
237
100
AcDbEntity
  8
0
  6
Continuous
 62
           7
100
AcDbVertex
100
AcDb2dVertex
 10
429.608520384
 20
-59.184261006
 30
0.0
 70
           8
  0
VERTEX
  5
238
100
AcDbEntity
  8
0
  6
Continuous
 62
           7
100
AcDbVertex
100
AcDb2dVertex
 10
429.607533309667
 20
-59.298385699656
 30
0.0
 70
           8
  0
VERTEX
  5
239
100
AcDbEntity
  8
0
  6
Continuous
 62
           7
100
AcDbVertex
100
AcDb2dVertex
 10
429.606710333333
 20
-59.41250159375
 30
0.0
 70
           8
  0
VERTEX
  5
23A
100
AcDbEntity
  8
0
  6
Continuous
 62
           7
100
AcDbVertex
100
AcDb2dVertex
 10
429.606036537
 20
-59.526001758469
 30
0.0
 70
           8
  0
VERTEX
  5
23B
100
AcDbEntity
  8
0
  6
Continuous
 62
           7
100
AcDbVertex
100
AcDb2dVertex
 10
429.605497002667
 20
-59.638279264
 30
0.0
 70
           8
  0
VERTEX
  5
23C
100
AcDbEntity
  8
0
  6
Continuous
 62
           7
100
AcDbVertex
100
AcDb2dVertex
 10
429.605076812333
 20
-59.748727180531
 30
0.0
 70
           8
  0
VERTEX
  5
23D
100
AcDbEntity
  8
0
  6
Continuous
 62
           7
100
AcDbVertex
100
AcDb2dVertex
 10
429.604761048
 20
-59.85673857825
 30
0.0
 70
           8
  0
VERTEX
  5
23E
100
AcDbEntity
  8
0
  6
Continuous
 62
           7
100
AcDbVertex
100
AcDb2dVertex
 10
429.604534791667
 20
-59.961706527344
 30
0.0
 70
           8
  0
VERTEX
  5
23F
100
AcDbEntity
  8
0
  6
Continuous
 62
           7
100
AcDbVertex
100
AcDb2dVertex
 10
429.604383125333
 20
-60.063024098
 30
0.0
 70
           8
  0
VERTEX
  5
240
100
AcDbEntity
  8
0
  6
Continuous
 62
           7
100
AcDbVertex
100
AcDb2dVertex
 10
429.604291131
 20
-60.160084360406
 30
0.0
 70
           8
  0
VERTEX
  5
241
100
AcDbEntity
  8
0
  6
Continuous
 62
           7
100
AcDbVertex
100
AcDb2dVertex
 10
429.604243890667
 20
-60.25228038475
 30
0.0
 70
           8
  0
VERTEX
  5
242
100
AcDbEntity
  8
0
  6
Continuous
 62
           7
100
AcDbVertex
100
AcDb2dVertex
 10
429.604226486333
 20
-60.339005241219
 30
0.0
 70
           8
  0
VERTEX
  5
243
100
AcDbEntity
  8
0
  6
Continuous
 62
           7
100
AcDbVertex
100
AcDb2dVertex
 10
429.604224
 20
-60.419652
 30
0.0
 70
           8
  0
SEQEND
  5
244
100
AcDbEntity
  8
0
  6
Continuous
 62
           7
  0
LINE
  5
245
100
AcDbEntity
  8
0
370
           0
  6
Continuous
 62
           7
100
AcDbLine
 10
428.808599
 20
-47.894041
 30
0.0
 11
421.011473
 21
-47.894041
 31
0.0
  0
POLYLINE
  5
246
100
AcDbEntity
  8
0
370
           0
  6
Continuous
 62
           7
100
AcDb2dPolyline
 66
           1
 10
0.0
 20
0.0
 30
0.0
 70
           4
 75
           6
  0
VERTEX
  5
247
100
AcDbEntity
  8
0
  6
Continuous
 62
           7
100
AcDbVertex
100
AcDb2dVertex
 10
428.808599
 20
-47.894041
 30
0.0
 70
          16
  0
VERTEX
  5
248
100
AcDbEntity
  8
0
  6
Continuous
 62
           7
100
AcDbVertex
100
AcDb2dVertex
 10
429.047287
 20
-49.395238
 30
0.0
 70
          16
  0
VERTEX
  5
249
100
AcDbEntity
  8
0
  6
Continuous
 62
           7
100
AcDbVertex
100
AcDb2dVertex
 10
429.405318
 20
-50.333486
 30
0.0
 70
          16
  0
VERTEX
  5
24A
100
AcDbEntity
  8
0
  6
Continuous
 62
           7
100
AcDbVertex
100
AcDb2dVertex
 10
429.683787
 20
-50.943347
 30
0.0
 70
          16
  0
VERTEX
  5
24B
100
AcDbEntity
  8
0
  6
Continuous
 62
           7
100
AcDbVertex
100
AcDb2dVertex
 10
430.360068
 20
-51.459384
 30
0.0
 70
          16
  0
VERTEX
  5
24C
100
AcDbEntity
  8
0
  6
Continuous
 62
           7
100
AcDbVertex
100
AcDb2dVertex
 10
430.917006
 20
-51.78777
 30
0.0
 70
          16
  0
VERTEX
  5
24D
100
AcDbEntity
  8
0
  6
Continuous
 62
           7
100
AcDbVertex
100
AcDb2dVertex
 10
431.712631
 20
-51.881595
 30
0.0
 70
          16
  0
VERTEX
  5
24E
100
AcDbEntity
  8
0
  6
Continuous
 62
           7
100
AcDbVertex
100
AcDb2dVertex
 10
432.070662
 20
-51.881595
 30
0.0
 70
          16
  0
VERTEX
  5
24F
100
AcDbEntity
  8
0
  6
Continuous
 62
           7
100
AcDbVertex
100
AcDb2dVertex
 10
428.808599
 20
-47.894041
 30
0.0
 70
           8
  0
VERTEX
  5
250
100
AcDbEntity
  8
0
  6
Continuous
 62
           7
100
AcDbVertex
100
AcDb2dVertex
 10
428.843956728281
 20
-48.111592396813
 30
0.0
 70
           8
  0
VERTEX
  5
251
100
AcDbEntity
  8
0
  6
Continuous
 62
           7
100
AcDbVertex
100
AcDb2dVertex
 10
428.87843180125
 20
-48.3143370645
 30
0.0
 70
           8
  0
VERTEX
  5
252
100
AcDbEntity
  8
0
  6
Continuous
 62
           7
100
AcDbVertex
100
AcDb2dVertex
 10
428.912036651094
 20
-48.502949368938
 30
0.0
 70
           8
  0
VERTEX
  5
253
100
AcDbEntity
  8
0
  6
Continuous
 62
           7
100
AcDbVertex
100
AcDb2dVertex
 10
428.94478371
 20
-48.678103676
 30
0.0
 70
           8
  0
VERTEX
  5
254
100
AcDbEntity
  8
0
  6
Continuous
 62
           7
100
AcDbVertex
100
AcDb2dVertex
 10
428.976685410156
 20
-48.840474351562
 30
0.0
 70
           8
  0
VERTEX
  5
255
100
AcDbEntity
  8
0
  6
Continuous
 62
           7
100
AcDbVertex
100
AcDb2dVertex
 10
429.00775418375
 20
-48.9907357615
 30
0.0
 70
           8
  0
VERTEX
  5
256
100
AcDbEntity
  8
0
  6
Continuous
 62
           7
100
AcDbVertex
100
AcDb2dVertex
 10
429.038002462969
 20
-49.129562271688
 30
0.0
 70
           8
  0
VERTEX
  5
257
100
AcDbEntity
  8
0
  6
Continuous
 62
           7
100
AcDbVertex
100
AcDb2dVertex
 10
429.06744268
 20
-49.257628248
 30
0.0
 70
           8
  0
VERTEX
  5
258
100
AcDbEntity
  8
0
  6
Continuous
 62
           7
100
AcDbVertex
100
AcDb2dVertex
 10
429.096087267031
 20
-49.375608056313
 30
0.0
 70
           8
  0
VERTEX
  5
259
100
AcDbEntity
  8
0
  6
Continuous
 62
           7
100
AcDbVertex
100
AcDb2dVertex
 10
429.12394865625
 20
-49.4841760625
 30
0.0
 70
           8
  0
VERTEX
  5
25A
100
AcDbEntity
  8
0
  6
Continuous
 62
           7
100
AcDbVertex
100
AcDb2dVertex
 10
429.151039279844
 20
-49.584006632438
 30
0.0
 70
           8
  0
VERTEX
  5
25B
100
AcDbEntity
  8
0
  6
Continuous
 62
           7
100
AcDbVertex
100
AcDb2dVertex
 10
429.17737157
 20
-49.675774132
 30
0.0
 70
           8
  0
VERTEX
  5
25C
100
AcDbEntity
  8
0
  6
Continuous
 62
           7
100
AcDbVertex
100
AcDb2dVertex
 10
429.202957958906
 20
-49.760152927062
 30
0.0
 70
           8
  0
VERTEX
  5
25D
100
AcDbEntity
  8
0
  6
Continuous
 62
           7
100
AcDbVertex
100
AcDb2dVertex
 10
429.22781087875
 20
-49.8378173835
 30
0.0
 70
           8
  0
VERTEX
  5
25E
100
AcDbEntity
  8
0
  6
Continuous
 62
           7
100
AcDbVertex
100
AcDb2dVertex
 10
429.251942761719
 20
-49.909441867188
 30
0.0
 70
           8
  0
VERTEX
  5
25F
100
AcDbEntity
  8
0
  6
Continuous
 62
           7
100
AcDbVertex
100
AcDb2dVertex
 10
429.27536604
 20
-49.975700744
 30
0.0
 70
           8
  0
VERTEX
  5
260
100
AcDbEntity
  8
0
  6
Continuous
 62
           7
100
AcDbVertex
100
AcDb2dVertex
 10
429.298093145781
 20
-50.037268379812
 30
0.0
 70
           8
  0
VERTEX
  5
261
100
AcDbEntity
  8
0
  6
Continuous
 62
           7
100
AcDbVertex
100
AcDb2dVertex
 10
429.32013651125
 20
-50.0948191405
 30
0.0
 70
           8
  0
VERTEX
  5
262
100
AcDbEntity
  8
0
  6
Continuous
 62
           7
100
AcDbVertex
100
AcDb2dVertex
 10
429.341508568594
 20
-50.149027391937
 30
0.0
 70
           8
  0
VERTEX
  5
263
100
AcDbEntity
  8
0
  6
Continuous
 62
           7
100
AcDbVertex
100
AcDb2dVertex
 10
429.36222175
 20
-50.2005675
 30
0.0
 70
           8
  0
VERTEX
  5
264
100
AcDbEntity
  8
0
  6
Continuous
 62
           7
100
AcDbVertex
100
AcDb2dVertex
 10
429.382300090406
 20
-50.250016096396
 30
0.0
 70
           8
  0
VERTEX
  5
265
100
AcDbEntity
  8
0
  6
Continuous
 62
           7
100
AcDbVertex
100
AcDb2dVertex
 10
429.40181403575
 20
-50.297558876167
 30
0.0
 70
           8
  0
VERTEX
  5
266
100
AcDbEntity
  8
0
  6
Continuous
 62
           7
100
AcDbVertex
100
AcDb2dVertex
 10
429.420845634719
 20
-50.343283800188
 30
0.0
 70
           8
  0
VERTEX
  5
267
100
AcDbEntity
  8
0
  6
Continuous
 62
           7
100
AcDbVertex
100
AcDb2dVertex
 10
429.439476936
 20
-50.387278829333
 30
0.0
 70
           8
  0
VERTEX
  5
268
100
AcDbEntity
  8
0
  6
Continuous
 62
           7
100
AcDbVertex
100
AcDb2dVertex
 10
429.457789988281
 20
-50.429631924479
 30
0.0
 70
           8
  0
VERTEX
  5
269
100
AcDbEntity
  8
0
  6
Continuous
 62
           7
100
AcDbVertex
100
AcDb2dVertex
 10
429.47586684025
 20
-50.4704310465
 30
0.0
 70
           8
  0
VERTEX
  5
26A
100
AcDbEntity
  8
0
  6
Continuous
 62
           7
100
AcDbVertex
100
AcDb2dVertex
 10
429.493789540594
 20
-50.509764156271
 30
0.0
 70
           8
  0
VERTEX
  5
26B
100
AcDbEntity
  8
0
  6
Continuous
 62
           7
100
AcDbVertex
100
AcDb2dVertex
 10
429.511640138
 20
-50.547719214667
 30
0.0
 70
           8
  0
VERTEX
  5
26C
100
AcDbEntity
  8
0
  6
Continuous
 62
           7
100
AcDbVertex
100
AcDb2dVertex
 10
429.529500681156
 20
-50.584384182563
 30
0.0
 70
           8
  0
VERTEX
  5
26D
100
AcDbEntity
  8
0
  6
Continuous
 62
           7
100
AcDbVertex
100
AcDb2dVertex
 10
429.54745321875
 20
-50.619847020833
 30
0.0
 70
           8
  0
VERTEX
  5
26E
100
AcDbEntity
  8
0
  6
Continuous
 62
           7
100
AcDbVertex
100
AcDb2dVertex
 10
429.565579799469
 20
-50.654195690354
 30
0.0
 70
           8
  0
VERTEX
  5
26F
100
AcDbEntity
  8
0
  6
Continuous
 62
           7
100
AcDbVertex
100
AcDb2dVertex
 10
429.583962472
 20
-50.687518152
 30
0.0
 70
           8
  0
VERTEX
  5
270
100
AcDbEntity
  8
0
  6
Continuous
 62
           7
100
AcDbVertex
100
AcDb2dVertex
 10
429.602683285031
 20
-50.719902366646
 30
0.0
 70
           8
  0
VERTEX
  5
271
100
AcDbEntity
  8
0
  6
Continuous
 62
           7
100
AcDbVertex
100
AcDb2dVertex
 10
429.62182428725
 20
-50.751436295167
 30
0.0
 70
           8
  0
VERTEX
  5
272
100
AcDbEntity
  8
0
  6
Continuous
 62
           7
100
AcDbVertex
100
AcDb2dVertex
 10
429.641467527344
 20
-50.782207898438
 30
0.0
 70
           8
  0
VERTEX
  5
273
100
AcDbEntity
  8
0
  6
Continuous
 62
           7
100
AcDbVertex
100
AcDb2dVertex
 10
429.661695054
 20
-50.812305137333
 30
0.0
 70
           8
  0
VERTEX
  5
274
100
AcDbEntity
  8
0
  6
Continuous
 62
           7
100
AcDbVertex
100
AcDb2dVertex
 10
429.682588915906
 20
-50.841815972729
 30
0.0
 70
           8
  0
VERTEX
  5
275
100
AcDbEntity
  8
0
  6
Continuous
 62
           7
100
AcDbVertex
100
AcDb2dVertex
 10
429.70423116175
 20
-50.8708283655
 30
0.0
 70
           8
  0
VERTEX
  5
276
100
AcDbEntity
  8
0
  6
Continuous
 62
           7
100
AcDbVertex
100
AcDb2dVertex
 10
429.726703840219
 20
-50.899430276521
 30
0.0
 70
           8
  0
VERTEX
  5
277
100
AcDbEntity
  8
0
  6
Continuous
 62
           7
100
AcDbVertex
100
AcDb2dVertex
 10
429.750089
 20
-50.927709666667
 30
0.0
 70
           8
  0
VERTEX
  5
278
100
AcDbEntity
  8
0
  6
Continuous
 62
           7
100
AcDbVertex
100
AcDb2dVertex
 10
429.774444240938
 20
-50.955737881938
 30
0.0
 70
           8
  0
VERTEX
  5
279
100
AcDbEntity
  8
0
  6
Continuous
 62
           7
100
AcDbVertex
100
AcDb2dVertex
 10
429.7997293675
 20
-50.983519808833
 30
0.0
 70
           8
  0
VERTEX
  5
27A
100
AcDbEntity
  8
0
  6
Continuous
 62
           7
100
AcDbVertex
100
AcDb2dVertex
 10
429.825879735312
 20
-51.011043718979
 30
0.0
 70
           8
  0
VERTEX
  5
27B
100
AcDbEntity
  8
0
  6
Continuous
 62
           7
100
AcDbVertex
100
AcDb2dVertex
 10
429.8528307
 20
-51.038297884
 30
0.0
 70
           8
  0
VERTEX
  5
27C
100
AcDbEntity
  8
0
  6
Continuous
 62
           7
100
AcDbVertex
100
AcDb2dVertex
 10
429.880517617187
 20
-51.065270575521
 30
0.0
 70
           8
  0
VERTEX
  5
27D
100
AcDbEntity
  8
0
  6
Continuous
 62
           7
100
AcDbVertex
100
AcDb2dVertex
 10
429.9088758425
 20
-51.091950065167
 30
0.0
 70
           8
  0
VERTEX
  5
27E
100
AcDbEntity
  8
0
  6
Continuous
 62
           7
100
AcDbVertex
100
AcDb2dVertex
 10
429.937840731563
 20
-51.118324624563
 30
0.0
 70
           8
  0
VERTEX
  5
27F
100
AcDbEntity
  8
0
  6
Continuous
 62
           7
100
AcDbVertex
100
AcDb2dVertex
 10
429.96734764
 20
-51.144382525333
 30
0.0
 70
           8
  0
VERTEX
  5
280
100
AcDbEntity
  8
0
  6
Continuous
 62
           7
100
AcDbVertex
100
AcDb2dVertex
 10
429.997331923438
 20
-51.170112039104
 30
0.0
 70
           8
  0
VERTEX
  5
281
100
AcDbEntity
  8
0
  6
Continuous
 62
           7
100
AcDbVertex
100
AcDb2dVertex
 10
430.0277289375
 20
-51.1955014375
 30
0.0
 70
           8
  0
VERTEX
  5
282
100
AcDbEntity
  8
0
  6
Continuous
 62
           7
100
AcDbVertex
100
AcDb2dVertex
 10
430.058474037813
 20
-51.220538992146
 30
0.0
 70
           8
  0
VERTEX
  5
283
100
AcDbEntity
  8
0
  6
Continuous
 62
           7
100
AcDbVertex
100
AcDb2dVertex
 10
430.08950258
 20
-51.245212974667
 30
0.0
 70
           8
  0
VERTEX
  5
284
100
AcDbEntity
  8
0
  6
Continuous
 62
           7
100
AcDbVertex
100
AcDb2dVertex
 10
430.120749919688
 20
-51.269511656688
 30
0.0
 70
           8
  0
VERTEX
  5
285
100
AcDbEntity
  8
0
  6
Continuous
 62
           7
100
AcDbVertex
100
AcDb2dVertex
 10
430.1521514125
 20
-51.293423309833
 30
0.0
 70
           8
  0
VERTEX
  5
286
100
AcDbEntity
  8
0
  6
Continuous
 62
           7
100
AcDbVertex
100
AcDb2dVertex
 10
430.183642414062
 20
-51.316936205729
 30
0.0
 70
           8
  0
VERTEX
  5
287
100
AcDbEntity
  8
0
  6
Continuous
 62
           7
100
AcDbVertex
100
AcDb2dVertex
 10
430.21515828
 20
-51.340038616
 30
0.0
 70
           8
  0
VERTEX
  5
288
100
AcDbEntity
  8
0
  6
Continuous
 62
           7
100
AcDbVertex
100
AcDb2dVertex
 10
430.246634365938
 20
-51.362718812271
 30
0.0
 70
           8
  0
VERTEX
  5
289
100
AcDbEntity
  8
0
  6
Continuous
 62
           7
100
AcDbVertex
100
AcDb2dVertex
 10
430.2780060275
 20
-51.384965066167
 30
0.0
 70
           8
  0
VERTEX
  5
28A
100
AcDbEntity
  8
0
  6
Continuous
 62
           7
100
AcDbVertex
100
AcDb2dVertex
 10
430.309208620313
 20
-51.406765649313
 30
0.0
 70
           8
  0
VERTEX
  5
28B
100
AcDbEntity
  8
0
  6
Continuous
 62
           7
100
AcDbVertex
100
AcDb2dVertex
 10
430.3401775
 20
-51.428108833333
 30
0.0
 70
           8
  0
VERTEX
  5
28C
100
AcDbEntity
  8
0
  6
Continuous
 62
           7
100
AcDbVertex
100
AcDb2dVertex
 10
430.370874542969
 20
-51.448984844635
 30
0.0
 70
           8
  0
VERTEX
  5
28D
100
AcDbEntity
  8
0
  6
Continuous
 62
           7
100
AcDbVertex
100
AcDb2dVertex
 10
430.40136770875
 20
-51.46939172875
 30
0.0
 70
           8
  0
VERTEX
  5
28E
100
AcDbEntity
  8
0
  6
Continuous
 62
           7
100
AcDbVertex
100
AcDb2dVertex
 10
430.431751477656
 20
-51.48932948599
 30
0.0
 70
           8
  0
VERTEX
  5
28F
100
AcDbEntity
  8
0
  6
Continuous
 62
           7
100
AcDbVertex
100
AcDb2dVertex
 10
430.46212033
 20
-51.508798116667
 30
0.0
 70
           8
  0
VERTEX
  5
290
100
AcDbEntity
  8
0
  6
Continuous
 62
           7
100
AcDbVertex
100
AcDb2dVertex
 10
430.492568746094
 20
-51.527797621094
 30
0.0
 70
           8
  0
VERTEX
  5
291
100
AcDbEntity
  8
0
  6
Continuous
 62
           7
100
AcDbVertex
100
AcDb2dVertex
 10
430.52319120625
 20
-51.546327999583
 30
0.0
 70
           8
  0
VERTEX
  5
292
100
AcDbEntity
  8
0
  6
Continuous
 62
           7
100
AcDbVertex
100
AcDb2dVertex
 10
430.554082190781
 20
-51.564389252448
 30
0.0
 70
           8
  0
VERTEX
  5
293
100
AcDbEntity
  8
0
  6
Continuous
 62
           7
100
AcDbVertex
100
AcDb2dVertex
 10
430.58533618
 20
-51.58198138
 30
0.0
 70
           8
  0
VERTEX
  5
294
100
AcDbEntity
  8
0
  6
Continuous
 62
           7
100
AcDbVertex
100
AcDb2dVertex
 10
430.617047654219
 20
-51.599104382552
 30
0.0
 70
           8
  0
VERTEX
  5
295
100
AcDbEntity
  8
0
  6
Continuous
 62
           7
100
AcDbVertex
100
AcDb2dVertex
 10
430.64931109375
 20
-51.615758260417
 30
0.0
 70
           8
  0
VERTEX
  5
296
100
AcDbEntity
  8
0
  6
Continuous
 62
           7
100
AcDbVertex
100
AcDb2dVertex
 10
430.682220978906
 20
-51.631943013906
 30
0.0
 70
           8
  0
VERTEX
  5
297
100
AcDbEntity
  8
0
  6
Continuous
 62
           7
100
AcDbVertex
100
AcDb2dVertex
 10
430.71587179
 20
-51.647658643333
 30
0.0
 70
           8
  0
VERTEX
  5
298
100
AcDbEntity
  8
0
  6
Continuous
 62
           7
100
AcDbVertex
100
AcDb2dVertex
 10
430.750358007344
 20
-51.66290514901
 30
0.0
 70
           8
  0
VERTEX
  5
299
100
AcDbEntity
  8
0
  6
Continuous
 62
           7
100
AcDbVertex
100
AcDb2dVertex
 10
430.78577411125
 20
-51.67768253125
 30
0.0
 70
           8
  0
VERTEX
  5
29A
100
AcDbEntity
  8
0
  6
Continuous
 62
           7
100
AcDbVertex
100
AcDb2dVertex
 10
430.822214582031
 20
-51.691990790365
 30
0.0
 70
           8
  0
VERTEX
  5
29B
100
AcDbEntity
  8
0
  6
Continuous
 62
           7
100
AcDbVertex
100
AcDb2dVertex
 10
430.8597739
 20
-51.705829926667
 30
0.0
 70
           8
  0
VERTEX
  5
29C
100
AcDbEntity
  8
0
  6
Continuous
 62
           7
100
AcDbVertex
100
AcDb2dVertex
 10
430.898546545469
 20
-51.719199940469
 30
0.0
 70
           8
  0
VERTEX
  5
29D
100
AcDbEntity
  8
0
  6
Continuous
 62
           7
100
AcDbVertex
100
AcDb2dVertex
 10
430.93862699875
 20
-51.732100832083
 30
0.0
 70
           8
  0
VERTEX
  5
29E
100
AcDbEntity
  8
0
  6
Continuous
 62
           7
100
AcDbVertex
100
AcDb2dVertex
 10
430.980109740156
 20
-51.744532601823
 30
0.0
 70
           8
  0
VERTEX
  5
29F
100
AcDbEntity
  8
0
  6
Continuous
 62
           7
100
AcDbVertex
100
AcDb2dVertex
 10
431.02308925
 20
-51.75649525
 30
0.0
 70
           8
  0
VERTEX
  5
2A0
100
AcDbEntity
  8
0
  6
Continuous
 62
           7
100
AcDbVertex
100
AcDb2dVertex
 10
431.067626028781
 20
-51.767986822156
 30
0.0
 70
           8
  0
VERTEX
  5
2A1
100
AcDbEntity
  8
0
  6
Continuous
 62
           7
100
AcDbVertex
100
AcDb2dVertex
 10
431.11364465775
 20
-51.77899754475
 30
0.0
 70
           8
  0
VERTEX
  5
2A2
100
AcDbEntity
  8
0
  6
Continuous
 62
           7
100
AcDbVertex
100
AcDb2dVertex
 10
431.161035738344
 20
-51.789515689469
 30
0.0
 70
           8
  0
VERTEX
  5
2A3
100
AcDbEntity
  8
0
  6
Continuous
 62
           7
100
AcDbVertex
100
AcDb2dVertex
 10
431.209689872
 20
-51.799529528
 30
0.0
 70
           8
  0
VERTEX
  5
2A4
100
AcDbEntity
  8
0
  6
Continuous
 62
           7
100
AcDbVertex
100
AcDb2dVertex
 10
431.259497660156
 20
-51.809027332031
 30
0.0
 70
           8
  0
VERTEX
  5
2A5
100
AcDbEntity
  8
0
  6
Continuous
 62
           7
100
AcDbVertex
100
AcDb2dVertex
 10
431.31034970425
 20
-51.81799737325
 30
0.0
 70
           8
  0
VERTEX
  5
2A6
100
AcDbEntity
  8
0
  6
Continuous
 62
           7
100
AcDbVertex
100
AcDb2dVertex
 10
431.362136605719
 20
-51.826427923344
 30
0.0
 70
           8
  0
VERTEX
  5
2A7
100
AcDbEntity
  8
0
  6
Continuous
 62
           7
100
AcDbVertex
100
AcDb2dVertex
 10
431.414748966
 20
-51.834307254
 30
0.0
 70
           8
  0
VERTEX
  5
2A8
100
AcDbEntity
  8
0
  6
Continuous
 62
           7
100
AcDbVertex
100
AcDb2dVertex
 10
431.468077386531
 20
-51.841623636906
 30
0.0
 70
           8
  0
VERTEX
  5
2A9
100
AcDbEntity
  8
0
  6
Continuous
 62
           7
100
AcDbVertex
100
AcDb2dVertex
 10
431.52201246875
 20
-51.84836534375
 30
0.0
 70
           8
  0
VERTEX
  5
2AA
100
AcDbEntity
  8
0
  6
Continuous
 62
           7
100
AcDbVertex
100
AcDb2dVertex
 10
431.576444814094
 20
-51.854520646219
 30
0.0
 70
           8
  0
VERTEX
  5
2AB
100
AcDbEntity
  8
0
  6
Continuous
 62
           7
100
AcDbVertex
100
AcDb2dVertex
 10
431.631265024
 20
-51.860077816
 30
0.0
 70
           8
  0
VERTEX
  5
2AC
100
AcDbEntity
  8
0
  6
Continuous
 62
           7
100
AcDbVertex
100
AcDb2dVertex
 10
431.686363699906
 20
-51.865025124781
 30
0.0
 70
           8
  0
VERTEX
  5
2AD
100
AcDbEntity
  8
0
  6
Continuous
 62
           7
100
AcDbVertex
100
AcDb2dVertex
 10
431.74163144325
 20
-51.86935084425
 30
0.0
 70
           8
  0
VERTEX
  5
2AE
100
AcDbEntity
  8
0
  6
Continuous
 62
           7
100
AcDbVertex
100
AcDb2dVertex
 10
431.796958855469
 20
-51.873043246094
 30
0.0
 70
           8
  0
VERTEX
  5
2AF
100
AcDbEntity
  8
0
  6
Continuous
 62
           7
100
AcDbVertex
100
AcDb2dVertex
 10
431.852236538
 20
-51.876090602
 30
0.0
 70
           8
  0
VERTEX
  5
2B0
100
AcDbEntity
  8
0
  6
Continuous
 62
           7
100
AcDbVertex
100
AcDb2dVertex
 10
431.907355092281
 20
-51.878481183656
 30
0.0
 70
           8
  0
VERTEX
  5
2B1
100
AcDbEntity
  8
0
  6
Continuous
 62
           7
100
AcDbVertex
100
AcDb2dVertex
 10
431.96220511975
 20
-51.88020326275
 30
0.0
 70
           8
  0
VERTEX
  5
2B2
100
AcDbEntity
  8
0
  6
Continuous
 62
           7
100
AcDbVertex
100
AcDb2dVertex
 10
432.016677221844
 20
-51.881245110969
 30
0.0
 70
           8
  0
VERTEX
  5
2B3
100
AcDbEntity
  8
0
  6
Continuous
 62
           7
100
AcDbVertex
100
AcDb2dVertex
 10
432.070662
 20
-51.881595
 30
0.0
 70
           8
  0
SEQEND
  5
2B4
100
AcDbEntity
  8
0
  6
Continuous
 62
           7
  0
LINE
  5
2B5
100
AcDbEntity
  8
0
370
           0
  6
Continuous
 62
           7
100
AcDbLine
 10
424.910036
 20
-42.780589
 30
0.0
 11
424.910036
 21
-44.797823
 31
0.0
  0
LINE
  5
2B6
100
AcDbEntity
  8
0
370
           0
  6
Continuous
 62
           7
100
AcDbLine
 10
424.910036
 20
-42.499115
 30
0.0
 11
424.910036
 21
-42.522571
 31
0.0
  0
LINE
  5
2B7
100
AcDbEntity
  8
0
370
           0
  6
Continuous
 62
           7
100
AcDbLine
 10
420.573879
 20
-42.780589
 30
0.0
 11
420.971692
 21
-42.499115
 31
0.0
  0
LINE
  5
2B8
100
AcDbEntity
  8
0
370
           0
  6
Continuous
 62
           7
100
AcDbLine
 10
420.573879
 20
-44.797823
 30
0.0
 11
420.971692
 21
-45.079297
 31
0.0
  0
LINE
  5
2B9
100
AcDbEntity
  8
0
370
           0
  6
Continuous
 62
           7
100
AcDbLine
 10
420.573879
 20
-42.780589
 30
0.0
 11
420.573879
 21
-44.797823
 31
0.0
  0
LINE
  5
2BA
100
AcDbEntity
  8
0
370
           0
  6
Continuous
 62
           7
100
AcDbLine
 10
429.206412
 20
-42.780589
 30
0.0
 11
428.808599
 21
-42.499115
 31
0.0
  0
LINE
  5
2BB
100
AcDbEntity
  8
0
370
           0
  6
Continuous
 62
           7
100
AcDbLine
 10
429.206412
 20
-44.797823
 30
0.0
 11
428.808599
 21
-45.079297
 31
0.0
  0
LINE
  5
2BC
100
AcDbEntity
  8
0
370
           0
  6
Continuous
 62
           7
100
AcDbLine
 10
429.206412
 20
-42.780589
 30
0.0
 11
429.206412
 21
-44.797823
 31
0.0
  0
LINE
  5
2BD
100
AcDbEntity
  8
0
370
           0
  6
Continuous
 62
           7
100
AcDbLine
 10
424.910036
 20
-44.797823
 30
0.0
 11
425.825005
 21
-45.079297
 31
0.0
  0
LINE
  5
2BE
100
AcDbEntity
  8
0
370
           0
  6
Continuous
 62
           7
100
AcDbLine
 10
424.910036
 20
-44.797823
 30
0.0
 11
423.955286
 21
-45.079297
 31
0.0
  0
LINE
  5
2BF
100
AcDbEntity
  8
0
370
           0
  6
Continuous
 62
           7
100
AcDbLine
 10
424.910036
 20
-42.780589
 30
0.0
 11
423.955286
 21
-42.499115
 31
0.0
  0
LINE
  5
2C0
100
AcDbEntity
  8
0
370
           0
  6
Continuous
 62
           7
100
AcDbLine
 10
424.910036
 20
-42.780589
 30
0.0
 11
425.825005
 21
-42.499115
 31
0.0
  0
LINE
  5
2C1
100
AcDbEntity
  8
0
370
           0
  6
Continuous
 62
           7
100
AcDbLine
 10
420.971692
 20
-45.290403
 30
0.0
 11
428.808599
 21
-45.290403
 31
0.0
  0
LWPOLYLINE
  5
2C2
100
AcDbEntity
  8
0
370
           0
  6
Continuous
 62
           7
100
AcDbPolyline
 90
        4
 70
           1
 10
420.971692
 20
-45.102753
 10
428.808599
 20
-45.102753
 10
428.808599
 20
-45.478052
 10
420.971692
 20
-45.478052
  0
LWPOLYLINE
  5
2C3
100
AcDbEntity
  8
0
370
           0
  6
Continuous
 62
           7
100
AcDbPolyline
 90
        4
 70
           1
 10
420.971692
 20
-41.91271
 10
428.808599
 20
-41.91271
 10
428.808599
 20
-42.522571
 10
420.971692
 20
-42.522571
  0
LWPOLYLINE
  5
2C4
100
AcDbEntity
  8
0
370
           0
  6
Continuous
 62
           7
100
AcDbPolyline
 90
        4
 70
           1
 10
429.524662
 20
-41.04483
 10
420.29541
 20
-41.04483
 10
420.971692
 20
-41.889254
 10
428.808599
 20
-41.889254
  0
LWPOLYLINE
  5
2C5
100
AcDbEntity
  8
0
370
           0
  6
Continuous
 62
           7
100
AcDbPolyline
 90
        4
 70
           1
 10
420.29541
 20
-38.183174
 10
429.524662
 20
-38.183174
 10
429.524662
 20
-41.04483
 10
420.29541
 20
-41.04483
  0
LWPOLYLINE
  5
2C6
100
AcDbEntity
  8
0
370
           0
  6
Continuous
 62
           7
100
AcDbPolyline
 90
        4
 70
           1
 10
428.768818
 20
-36.54124
 10
420.971692
 20
-36.54124
 10
420.29541
 20
-38.183174
 10
429.484881
 20
-38.183174
  0
LWPOLYLINE
  5
2C7
100
AcDbEntity
  8
0
370
           0
  6
Continuous
 62
           7
100
AcDbPolyline
 90
        4
 70
           1
 10
420.971692
 20
-31.204954
 10
428.768818
 20
-31.204954
 10
428.768818
 20
-36.552968
 10
420.971692
 20
-36.552968
  0
LINE
  5
2C8
100
AcDbEntity
  8
0
370
           0
  6
Continuous
 62
           7
100
AcDbLine
 10
419.778254
 20
-23.839707
 30
0.0
 11
419.778254
 21
-22.057036
 31
0.0
  0
LINE
  5
2C9
100
AcDbEntity
  8
0
370
           0
  6
Continuous
 62
           7
100
AcDbLine
 10
419.778254
 20
-23.886619
 30
0.0
 11
421.051254
 21
-23.886619
 31
0.0
  0
LWPOLYLINE
  5
2CA
100
AcDbEntity
  8
0
370
           0
  6
Continuous
 62
           7
100
AcDbPolyline
 90
        5
 70
           0
 10
429.405318
 20
-24.340628
 10
429.405318
 20
-31.204954
 10
420.255628
 20
-31.204954
 10
420.255628
 20
-23.886619
 10
421.051254
 20
-23.886619
  0
ELLIPSE
  5
2CB
100
AcDbEntity
  8
0
370
           0
  6
Continuous
 62
           7
100
AcDbEllipse
 10
431.115912
 20
-24.637219
 30
0.0
 11
0.0
 21
-0.3663975596427918
 31
0.0
210
0.0
220
0.0
230
1.0
 40
0.84799
 41
1.5707963267948966
 42
7.8539816339744828
  0
ELLIPSE
  5
2CC
100
AcDbEntity
  8
0
370
           0
  6
Continuous
 62
           7
100
AcDbEllipse
 10
431.197882
 20
-24.682786
 30
0.0
 11
0.0
 21
-0.6951854825019842
 31
0.0
210
0.0
220
0.0
230
1.0
 40
0.84799
 41
-0.4966196258876199
 42
2.8017636100437726
  0
POLYLINE
  5
2CD
100
AcDbEntity
  8
0
370
           0
  6
Continuous
 62
           7
100
AcDb2dPolyline
 66
           1
 10
0.0
 20
0.0
 30
0.0
 70
           4
 75
           6
  0
VERTEX
  5
2CE
100
AcDbEntity
  8
0
  6
Continuous
 62
           7
100
AcDbVertex
100
AcDb2dVertex
 10
425.506755
 20
-23.136021
 30
0.0
 70
          16
  0
VERTEX
  5
2CF
100
AcDbEntity
  8
0
  6
Continuous
 62
           7
100
AcDbVertex
100
AcDb2dVertex
 10
426.394908
 20
-23.183976
 30
0.0
 70
          16
  0
VERTEX
  5
2D0
100
AcDbEntity
  8
0
  6
Continuous
 62
           7
100
AcDbVertex
100
AcDb2dVertex
 10
427.484915
 20
-23.375796
 30
0.0
 70
          16
  0
VERTEX
  5
2D1
100
AcDbEntity
  8
0
  6
Continuous
 62
           7
100
AcDbVertex
100
AcDb2dVertex
 10
428.292327
 20
-23.71148
 30
0.0
 70
          16
  0
VERTEX
  5
2D2
100
AcDbEntity
  8
0
  6
Continuous
 62
           7
100
AcDbVertex
100
AcDb2dVertex
 10
429.341963
 20
-24.28694
 30
0.0
 70
          16
  0
VERTEX
  5
2D3
100
AcDbEntity
  8
0
  6
Continuous
 62
           7
100
AcDbVertex
100
AcDb2dVertex
 10
430.553081
 20
-25.054219
 30
0.0
 70
          16
  0
VERTEX
  5
2D4
100
AcDbEntity
  8
0
  6
Continuous
 62
           7
100
AcDbVertex
100
AcDb2dVertex
 10
430.956787
 20
-25.293993
 30
0.0
 70
          16
  0
VERTEX
  5
2D5
100
AcDbEntity
  8
0
  6
Continuous
 62
           7
100
AcDbVertex
100
AcDb2dVertex
 10
425.506755
 20
-23.136021
 30
0.0
 70
           8
  0
VERTEX
  5
2D6
100
AcDbEntity
  8
0
  6
Continuous
 62
           7
100
AcDbVertex
100
AcDb2dVertex
 10
425.637429980802
 20
-23.143568917167
 30
0.0
 70
           8
  0
VERTEX
  5
2D7
100
AcDbEntity
  8
0
  6
Continuous
 62
           7
100
AcDbVertex
100
AcDb2dVertex
 10
425.763111631417
 20
-23.151806187333
 30
0.0
 70
           8
  0
VERTEX
  5
2D8
100
AcDbEntity
  8
0
  6
Continuous
 62
           7
100
AcDbVertex
100
AcDb2dVertex
 10
425.883953864156
 20
-23.1607028385
 30
0.0
 70
           8
  0
VERTEX
  5
2D9
100
AcDbEntity
  8
0
  6
Continuous
 62
           7
100
AcDbVertex
100
AcDb2dVertex
 10
426.000110591333
 20
-23.170228898667
 30
0.0
 70
           8
  0
VERTEX
  5
2DA
100
AcDbEntity
  8
0
  6
Continuous
 62
           7
100
AcDbVertex
100
AcDb2dVertex
 10
426.11173572526
 20
-23.180354395833
 30
0.0
 70
           8
  0
VERTEX
  5
2DB
100
AcDbEntity
  8
0
  6
Continuous
 62
           7
100
AcDbVertex
100
AcDb2dVertex
 10
426.21898317825
 20
-23.191049358
 30
0.0
 70
           8
  0
VERTEX
  5
2DC
100
AcDbEntity
  8
0
  6
Continuous
 62
           7
100
AcDbVertex
100
AcDb2dVertex
 10
426.322006862615
 20
-23.202283813167
 30
0.0
 70
           8
  0
VERTEX
  5
2DD
100
AcDbEntity
  8
0
  6
Continuous
 62
           7
100
AcDbVertex
100
AcDb2dVertex
 10
426.420960690667
 20
-23.214027789333
 30
0.0
 70
           8
  0
VERTEX
  5
2DE
100
AcDbEntity
  8
0
  6
Continuous
 62
           7
100
AcDbVertex
100
AcDb2dVertex
 10
426.515998574719
 20
-23.2262513145
 30
0.0
 70
           8
  0
VERTEX
  5
2DF
100
AcDbEntity
  8
0
  6
Continuous
 62
           7
100
AcDbVertex
100
AcDb2dVertex
 10
426.607274427083
 20
-23.238924416667
 30
0.0
 70
           8
  0
VERTEX
  5
2E0
100
AcDbEntity
  8
0
  6
Continuous
 62
           7
100
AcDbVertex
100
AcDb2dVertex
 10
426.694942160073
 20
-23.252017123833
 30
0.0
 70
           8
  0
VERTEX
  5
2E1
100
AcDbEntity
  8
0
  6
Continuous
 62
           7
100
AcDbVertex
100
AcDb2dVertex
 10
426.779155686
 20
-23.265499464
 30
0.0
 70
           8
  0
VERTEX
  5
2E2
100
AcDbEntity
  8
0
  6
Continuous
 62
           7
100
AcDbVertex
100
AcDb2dVertex
 10
426.860068917177
 20
-23.279341465167
 30
0.0
 70
           8
  0
VERTEX
  5
2E3
100
AcDbEntity
  8
0
  6
Continuous
 62
           7
100
AcDbVertex
100
AcDb2dVertex
 10
426.937835765917
 20
-23.293513155333
 30
0.0
 70
           8
  0
VERTEX
  5
2E4
100
AcDbEntity
  8
0
  6
Continuous
 62
           7
100
AcDbVertex
100
AcDb2dVertex
 10
427.012610144531
 20
-23.3079845625
 30
0.0
 70
           8
  0
VERTEX
  5
2E5
100
AcDbEntity
  8
0
  6
Continuous
 62
           7
100
AcDbVertex
100
AcDb2dVertex
 10
427.084545965333
 20
-23.322725714667
 30
0.0
 70
           8
  0
VERTEX
  5
2E6
100
AcDbEntity
  8
0
  6
Continuous
 62
           7
100
AcDbVertex
100
AcDb2dVertex
 10
427.153797140635
 20
-23.337706639833
 30
0.0
 70
           8
  0
VERTEX
  5
2E7
100
AcDbEntity
  8
0
  6
Continuous
 62
           7
100
AcDbVertex
100
AcDb2dVertex
 10
427.22051758275
 20
-23.352897366
 30
0.0
 70
           8
  0
VERTEX
  5
2E8
100
AcDbEntity
  8
0
  6
Continuous
 62
           7
100
AcDbVertex
100
AcDb2dVertex
 10
427.28486120399
 20
-23.368267921167
 30
0.0
 70
           8
  0
VERTEX
  5
2E9
100
AcDbEntity
  8
0
  6
Continuous
 62
           7
100
AcDbVertex
100
AcDb2dVertex
 10
427.346981916667
 20
-23.383788333333
 30
0.0
 70
           8
  0
VERTEX
  5
2EA
100
AcDbEntity
  8
0
  6
Continuous
 62
           7
100
AcDbVertex
100
AcDb2dVertex
 10
427.40703026901
 20
-23.399437622125
 30
0.0
 70
           8
  0
VERTEX
  5
2EB
100
AcDbEntity
  8
0
  6
Continuous
 62
           7
100
AcDbVertex
100
AcDb2dVertex
 10
427.465143352917
 20
-23.415230773667
 30
0.0
 70
           8
  0
VERTEX
  5
2EC
100
AcDbEntity
  8
0
  6
Continuous
 62
           7
100
AcDbVertex
100
AcDb2dVertex
 10
427.521454896198
 20
-23.431191765708
 30
0.0
 70
           8
  0
VERTEX
  5
2ED
100
AcDbEntity
  8
0
  6
Continuous
 62
           7
100
AcDbVertex
100
AcDb2dVertex
 10
427.576098626667
 20
-23.447344576
 30
0.0
 70
           8
  0
VERTEX
  5
2EE
100
AcDbEntity
  8
0
  6
Continuous
 62
           7
100
AcDbVertex
100
AcDb2dVertex
 10
427.629208272135
 20
-23.463713182292
 30
0.0
 70
           8
  0
VERTEX
  5
2EF
100
AcDbEntity
  8
0
  6
Continuous
 62
           7
100
AcDbVertex
100
AcDb2dVertex
 10
427.680917560417
 20
-23.480321562333
 30
0.0
 70
           8
  0
VERTEX
  5
2F0
100
AcDbEntity
  8
0
  6
Continuous
 62
           7
100
AcDbVertex
100
AcDb2dVertex
 10
427.731360219323
 20
-23.497193693875
 30
0.0
 70
           8
  0
VERTEX
  5
2F1
100
AcDbEntity
  8
0
  6
Continuous
 62
           7
100
AcDbVertex
100
AcDb2dVertex
 10
427.780669976667
 20
-23.514353554667
 30
0.0
 70
           8
  0
VERTEX
  5
2F2
100
AcDbEntity
  8
0
  6
Continuous
 62
           7
100
AcDbVertex
100
AcDb2dVertex
 10
427.82898056026
 20
-23.531825122458
 30
0.0
 70
           8
  0
VERTEX
  5
2F3
100
AcDbEntity
  8
0
  6
Continuous
 62
           7
100
AcDbVertex
100
AcDb2dVertex
 10
427.876425697917
 20
-23.549632375
 30
0.0
 70
           8
  0
VERTEX
  5
2F4
100
AcDbEntity
  8
0
  6
Continuous
 62
           7
100
AcDbVertex
100
AcDb2dVertex
 10
427.923139117448
 20
-23.567799290042
 30
0.0
 70
           8
  0
VERTEX
  5
2F5
100
AcDbEntity
  8
0
  6
Continuous
 62
           7
100
AcDbVertex
100
AcDb2dVertex
 10
427.969254546667
 20
-23.586349845333
 30
0.0
 70
           8
  0
VERTEX
  5
2F6
100
AcDbEntity
  8
0
  6
Continuous
 62
           7
100
AcDbVertex
100
AcDb2dVertex
 10
428.014905713385
 20
-23.605308018625
 30
0.0
 70
           8
  0
VERTEX
  5
2F7
100
AcDbEntity
  8
0
  6
Continuous
 62
           7
100
AcDbVertex
100
AcDb2dVertex
 10
428.060226345417
 20
-23.624697787667
 30
0.0
 70
           8
  0
VERTEX
  5
2F8
100
AcDbEntity
  8
0
  6
Continuous
 62
           7
100
AcDbVertex
100
AcDb2dVertex
 10
428.105350170573
 20
-23.644543130208
 30
0.0
 70
           8
  0
VERTEX
  5
2F9
100
AcDbEntity
  8
0
  6
Continuous
 62
           7
100
AcDbVertex
100
AcDb2dVertex
 10
428.150410916667
 20
-23.664868024
 30
0.0
 70
           8
  0
VERTEX
  5
2FA
100
AcDbEntity
  8
0
  6
Continuous
 62
           7
100
AcDbVertex
100
AcDb2dVertex
 10
428.19554231151
 20
-23.685696446792
 30
0.0
 70
           8
  0
VERTEX
  5
2FB
100
AcDbEntity
  8
0
  6
Continuous
 62
           7
100
AcDbVertex
100
AcDb2dVertex
 10
428.240878082917
 20
-23.707052376333
 30
0.0
 70
           8
  0
VERTEX
  5
2FC
100
AcDbEntity
  8
0
  6
Continuous
 62
           7
100
AcDbVertex
100
AcDb2dVertex
 10
428.286551958698
 20
-23.728959790375
 30
0.0
 70
           8
  0
VERTEX
  5
2FD
100
AcDbEntity
  8
0
  6
Continuous
 62
           7
100
AcDbVertex
100
AcDb2dVertex
 10
428.332697666667
 20
-23.751442666667
 30
0.0
 70
           8
  0
VERTEX
  5
2FE
100
AcDbEntity
  8
0
  6
Continuous
 62
           7
100
AcDbVertex
100
AcDb2dVertex
 10
428.379437580354
 20
-23.774527980052
 30
0.0
 70
           8
  0
VERTEX
  5
2FF
100
AcDbEntity
  8
0
  6
Continuous
 62
           7
100
AcDbVertex
100
AcDb2dVertex
 10
428.426848656167
 20
-23.79825469375
 30
0.0
 70
           8
  0
VERTEX
  5
300
100
AcDbEntity
  8
0
  6
Continuous
 62
           7
100
AcDbVertex
100
AcDb2dVertex
 10
428.474996496229
 20
-23.822664768073
 30
0.0
 70
           8
  0
VERTEX
  5
301
100
AcDbEntity
  8
0
  6
Continuous
 62
           7
100
AcDbVertex
100
AcDb2dVertex
 10
428.523946702667
 20
-23.847800163333
 30
0.0
 70
           8
  0
VERTEX
  5
302
100
AcDbEntity
  8
0
  6
Continuous
 62
           7
100
AcDbVertex
100
AcDb2dVertex
 10
428.573764877604
 20
-23.873702839844
 30
0.0
 70
           8
  0
VERTEX
  5
303
100
AcDbEntity
  8
0
  6
Continuous
 62
           7
100
AcDbVertex
100
AcDb2dVertex
 10
428.624516623167
 20
-23.900414757917
 30
0.0
 70
           8
  0
VERTEX
  5
304
100
AcDbEntity
  8
0
  6
Continuous
 62
           7
100
AcDbVertex
100
AcDb2dVertex
 10
428.676267541479
 20
-23.927977877865
 30
0.0
 70
           8
  0
VERTEX
  5
305
100
AcDbEntity
  8
0
  6
Continuous
 62
           7
100
AcDbVertex
100
AcDb2dVertex
 10
428.729083234667
 20
-23.95643416
 30
0.0
 70
           8
  0
VERTEX
  5
306
100
AcDbEntity
  8
0
  6
Continuous
 62
           7
100
AcDbVertex
100
AcDb2dVertex
 10
428.783029304854
 20
-23.985825564635
 30
0.0
 70
           8
  0
VERTEX
  5
307
100
AcDbEntity
  8
0
  6
Continuous
 62
           7
100
AcDbVertex
100
AcDb2dVertex
 10
428.838171354167
 20
-24.016194052083
 30
0.0
 70
           8
  0
VERTEX
  5
308
100
AcDbEntity
  8
0
  6
Continuous
 62
           7
100
AcDbVertex
100
AcDb2dVertex
 10
428.894574984729
 20
-24.047581582656
 30
0.0
 70
           8
  0
VERTEX
  5
309
100
AcDbEntity
  8
0
  6
Continuous
 62
           7
100
AcDbVertex
100
AcDb2dVertex
 10
428.952305798667
 20
-24.080030116667
 30
0.0
 70
           8
  0
VERTEX
  5
30A
100
AcDbEntity
  8
0
  6
Continuous
 62
           7
100
AcDbVertex
100
AcDb2dVertex
 10
429.011429398104
 20
-24.113581614427
 30
0.0
 70
           8
  0
VERTEX
  5
30B
100
AcDbEntity
  8
0
  6
Continuous
 62
           7
100
AcDbVertex
100
AcDb2dVertex
 10
429.072011385167
 20
-24.14827803625
 30
0.0
 70
           8
  0
VERTEX
  5
30C
100
AcDbEntity
  8
0
  6
Continuous
 62
           7
100
AcDbVertex
100
AcDb2dVertex
 10
429.134117361979
 20
-24.184161342448
 30
0.0
 70
           8
  0
VERTEX
  5
30D
100
AcDbEntity
  8
0
  6
Continuous
 62
           7
100
AcDbVertex
100
AcDb2dVertex
 10
429.197812930667
 20
-24.221273493333
 30
0.0
 70
           8
  0
VERTEX
  5
30E
100
AcDbEntity
  8
0
  6
Continuous
 62
           7
100
AcDbVertex
100
AcDb2dVertex
 10
429.263163693354
 20
-24.259656449219
 30
0.0
 70
           8
  0
VERTEX
  5
30F
100
AcDbEntity
  8
0
  6
Continuous
 62
           7
100
AcDbVertex
100
AcDb2dVertex
 10
429.330235252167
 20
-24.299352170417
 30
0.0
 70
           8
  0
VERTEX
  5
310
100
AcDbEntity
  8
0
  6
Continuous
 62
           7
100
AcDbVertex
100
AcDb2dVertex
 10
429.399093209229
 20
-24.34040261724
 30
0.0
 70
           8
  0
VERTEX
  5
311
100
AcDbEntity
  8
0
  6
Continuous
 62
           7
100
AcDbVertex
100
AcDb2dVertex
 10
429.469803166667
 20
-24.38284975
 30
0.0
 70
           8
  0
VERTEX
  5
312
100
AcDbEntity
  8
0
  6
Continuous
 62
           7
100
AcDbVertex
100
AcDb2dVertex
 10
429.542378581271
 20
-24.426698563719
 30
0.0
 70
           8
  0
VERTEX
  5
313
100
AcDbEntity
  8
0
  6
Continuous
 62
           7
100
AcDbVertex
100
AcDb2dVertex
 10
429.6166243285
 20
-24.47180619225
 30
0.0
 70
           8
  0
VERTEX
  5
314
100
AcDbEntity
  8
0
  6
Continuous
 62
           7
100
AcDbVertex
100
AcDb2dVertex
 10
429.692293138479
 20
-24.517992804156
 30
0.0
 70
           8
  0
VERTEX
  5
315
100
AcDbEntity
  8
0
  6
Continuous
 62
           7
100
AcDbVertex
100
AcDb2dVertex
 10
429.769137741333
 20
-24.565078568
 30
0.0
 70
           8
  0
VERTEX
  5
316
100
AcDbEntity
  8
0
  6
Continuous
 62
           7
100
AcDbVertex
100
AcDb2dVertex
 10
429.846910867187
 20
-24.612883652344
 30
0.0
 70
           8
  0
VERTEX
  5
317
100
AcDbEntity
  8
0
  6
Continuous
 62
           7
100
AcDbVertex
100
AcDb2dVertex
 10
429.925365246167
 20
-24.66122822575
 30
0.0
 70
           8
  0
VERTEX
  5
318
100
AcDbEntity
  8
0
  6
Continuous
 62
           7
100
AcDbVertex
100
AcDb2dVertex
 10
430.004253608396
 20
-24.709932456781
 30
0.0
 70
           8
  0
VERTEX
  5
319
100
AcDbEntity
  8
0
  6
Continuous
 62
           7
100
AcDbVertex
100
AcDb2dVertex
 10
430.083328684
 20
-24.758816514
 30
0.0
 70
           8
  0
VERTEX
  5
31A
100
AcDbEntity
  8
0
  6
Continuous
 62
           7
100
AcDbVertex
100
AcDb2dVertex
 10
430.162343203104
 20
-24.807700565969
 30
0.0
 70
           8
  0
VERTEX
  5
31B
100
AcDbEntity
  8
0
  6
Continuous
 62
           7
100
AcDbVertex
100
AcDb2dVertex
 10
430.241049895833
 20
-24.85640478125
 30
0.0
 70
           8
  0
VERTEX
  5
31C
100
AcDbEntity
  8
0
  6
Continuous
 62
           7
100
AcDbVertex
100
AcDb2dVertex
 10
430.319201492313
 20
-24.904749328406
 30
0.0
 70
           8
  0
VERTEX
  5
31D
100
AcDbEntity
  8
0
  6
Continuous
 62
           7
100
AcDbVertex
100
AcDb2dVertex
 10
430.396550722667
 20
-24.952554376
 30
0.0
 70
           8
  0
VERTEX
  5
31E
100
AcDbEntity
  8
0
  6
Continuous
 62
           7
100
AcDbVertex
100
AcDb2dVertex
 10
430.472850317021
 20
-24.999640092594
 30
0.0
 70
           8
  0
VERTEX
  5
31F
100
AcDbEntity
  8
0
  6
Continuous
 62
           7
100
AcDbVertex
100
AcDb2dVertex
 10
430.5478530055
 20
-25.04582664675
 30
0.0
 70
           8
  0
VERTEX
  5
320
100
AcDbEntity
  8
0
  6
Continuous
 62
           7
100
AcDbVertex
100
AcDb2dVertex
 10
430.621311518229
 20
-25.090934207031
 30
0.0
 70
           8
  0
VERTEX
  5
321
100
AcDbEntity
  8
0
  6
Continuous
 62
           7
100
AcDbVertex
100
AcDb2dVertex
 10
430.692978585333
 20
-25.134782942
 30
0.0
 70
           8
  0
VERTEX
  5
322
100
AcDbEntity
  8
0
  6
Continuous
 62
           7
100
AcDbVertex
100
AcDb2dVertex
 10
430.762606936937
 20
-25.177193020219
 30
0.0
 70
           8
  0
VERTEX
  5
323
100
AcDbEntity
  8
0
  6
Continuous
 62
           7
100
AcDbVertex
100
AcDb2dVertex
 10
430.829949303167
 20
-25.21798461025
 30
0.0
 70
           8
  0
VERTEX
  5
324
100
AcDbEntity
  8
0
  6
Continuous
 62
           7
100
AcDbVertex
100
AcDb2dVertex
 10
430.894758414146
 20
-25.256977880656
 30
0.0
 70
           8
  0
VERTEX
  5
325
100
AcDbEntity
  8
0
  6
Continuous
 62
           7
100
AcDbVertex
100
AcDb2dVertex
 10
430.956787
 20
-25.293993
 30
0.0
 70
           8
  0
SEQEND
  5
326
100
AcDbEntity
  8
0
  6
Continuous
 62
           7
  0
LINE
  5
327
100
AcDbEntity
  8
0
370
           0
  6
Continuous
 62
           7
100
AcDbLine
 10
429.405318
 20
-25.997678
 30
0.0
 11
431.235256
 21
-25.997679
 31
0.0
  0
POLYLINE
  5
328
100
AcDbEntity
  8
0
370
           0
  6
Continuous
 62
           7
100
AcDb2dPolyline
 66
           1
 10
0.0
 20
0.0
 30
0.0
 70
           4
 75
           6
  0
VERTEX
  5
329
100
AcDbEntity
  8
0
  6
Continuous
 62
           7
100
AcDbVertex
100
AcDb2dVertex
 10
432.508256
 20
-23.652057
 30
0.0
 70
          16
  0
VERTEX
  5
32A
100
AcDbEntity
  8
0
  6
Continuous
 62
           7
100
AcDbVertex
100
AcDb2dVertex
 10
432.461371
 20
-24.121181
 30
0.0
 70
          16
  0
VERTEX
  5
32B
100
AcDbEntity
  8
0
  6
Continuous
 62
           7
100
AcDbVertex
100
AcDb2dVertex
 10
432.3676
 20
-24.824867
 30
0.0
 70
          16
  0
VERTEX
  5
32C
100
AcDbEntity
  8
0
  6
Continuous
 62
           7
100
AcDbVertex
100
AcDb2dVertex
 10
432.226945
 20
-25.387816
 30
0.0
 70
          16
  0
VERTEX
  5
32D
100
AcDbEntity
  8
0
  6
Continuous
 62
           7
100
AcDbVertex
100
AcDb2dVertex
 10
432.08629
 20
-25.716203
 30
0.0
 70
          16
  0
VERTEX
  5
32E
100
AcDbEntity
  8
0
  6
Continuous
 62
           7
100
AcDbVertex
100
AcDb2dVertex
 10
431.80498
 20
-25.85694
 30
0.0
 70
          16
  0
VERTEX
  5
32F
100
AcDbEntity
  8
0
  6
Continuous
 62
           7
100
AcDbVertex
100
AcDb2dVertex
 10
431.476785
 20
-25.997678
 30
0.0
 70
          16
  0
VERTEX
  5
330
100
AcDbEntity
  8
0
  6
Continuous
 62
           7
100
AcDbVertex
100
AcDb2dVertex
 10
431.195474
 20
-25.997678
 30
0.0
 70
          16
  0
VERTEX
  5
331
100
AcDbEntity
  8
0
  6
Continuous
 62
           7
100
AcDbVertex
100
AcDb2dVertex
 10
432.508256
 20
-23.652057
 30
0.0
 70
           8
  0
VERTEX
  5
332
100
AcDbEntity
  8
0
  6
Continuous
 62
           7
100
AcDbVertex
100
AcDb2dVertex
 10
432.501223246344
 20
-23.721550390542
 30
0.0
 70
           8
  0
VERTEX
  5
333
100
AcDbEntity
  8
0
  6
Continuous
 62
           7
100
AcDbVertex
100
AcDb2dVertex
 10
432.49419048575
 20
-23.789310954333
 30
0.0
 70
           8
  0
VERTEX
  5
334
100
AcDbEntity
  8
0
  6
Continuous
 62
           7
100
AcDbVertex
100
AcDb2dVertex
 10
432.487157718781
 20
-23.855365079625
 30
0.0
 70
           8
  0
VERTEX
  5
335
100
AcDbEntity
  8
0
  6
Continuous
 62
           7
100
AcDbVertex
100
AcDb2dVertex
 10
432.480124946
 20
-23.919739154667
 30
0.0
 70
           8
  0
VERTEX
  5
336
100
AcDbEntity
  8
0
  6
Continuous
 62
           7
100
AcDbVertex
100
AcDb2dVertex
 10
432.473092167969
 20
-23.982459567708
 30
0.0
 70
           8
  0
VERTEX
  5
337
100
AcDbEntity
  8
0
  6
Continuous
 62
           7
100
AcDbVertex
100
AcDb2dVertex
 10
432.46605938525
 20
-24.043552707
 30
0.0
 70
           8
  0
VERTEX
  5
338
100
AcDbEntity
  8
0
  6
Continuous
 62
           7
100
AcDbVertex
100
AcDb2dVertex
 10
432.459026598406
 20
-24.103044960792
 30
0.0
 70
           8
  0
VERTEX
  5
339
100
AcDbEntity
  8
0
  6
Continuous
 62
           7
100
AcDbVertex
100
AcDb2dVertex
 10
432.451993808
 20
-24.160962717333
 30
0.0
 70
           8
  0
VERTEX
  5
33A
100
AcDbEntity
  8
0
  6
Continuous
 62
           7
100
AcDbVertex
100
AcDb2dVertex
 10
432.444961014594
 20
-24.217332364875
 30
0.0
 70
           8
  0
VERTEX
  5
33B
100
AcDbEntity
  8
0
  6
Continuous
 62
           7
100
AcDbVertex
100
AcDb2dVertex
 10
432.43792821875
 20
-24.272180291667
 30
0.0
 70
           8
  0
VERTEX
  5
33C
100
AcDbEntity
  8
0
  6
Continuous
 62
           7
100
AcDbVertex
100
AcDb2dVertex
 10
432.430895421031
 20
-24.325532885958
 30
0.0
 70
           8
  0
VERTEX
  5
33D
100
AcDbEntity
  8
0
  6
Continuous
 62
           7
100
AcDbVertex
100
AcDb2dVertex
 10
432.423862622
 20
-24.377416536
 30
0.0
 70
           8
  0
VERTEX
  5
33E
100
AcDbEntity
  8
0
  6
Continuous
 62
           7
100
AcDbVertex
100
AcDb2dVertex
 10
432.416829822219
 20
-24.427857630042
 30
0.0
 70
           8
  0
VERTEX
  5
33F
100
AcDbEntity
  8
0
  6
Continuous
 62
           7
100
AcDbVertex
100
AcDb2dVertex
 10
432.40979702225
 20
-24.476882556333
 30
0.0
 70
           8
  0
VERTEX
  5
340
100
AcDbEntity
  8
0
  6
Continuous
 62
           7
100
AcDbVertex
100
AcDb2dVertex
 10
432.402764222656
 20
-24.524517703125
 30
0.0
 70
           8
  0
VERTEX
  5
341
100
AcDbEntity
  8
0
  6
Continuous
 62
           7
100
AcDbVertex
100
AcDb2dVertex
 10
432.395731424
 20
-24.570789458667
 30
0.0
 70
           8
  0
VERTEX
  5
342
100
AcDbEntity
  8
0
  6
Continuous
 62
           7
100
AcDbVertex
100
AcDb2dVertex
 10
432.388698626844
 20
-24.615724211208
 30
0.0
 70
           8
  0
VERTEX
  5
343
100
AcDbEntity
  8
0
  6
Continuous
 62
           7
100
AcDbVertex
100
AcDb2dVertex
 10
432.38166583175
 20
-24.659348349
 30
0.0
 70
           8
  0
VERTEX
  5
344
100
AcDbEntity
  8
0
  6
Continuous
 62
           7
100
AcDbVertex
100
AcDb2dVertex
 10
432.374633039281
 20
-24.701688260292
 30
0.0
 70
           8
  0
VERTEX
  5
345
100
AcDbEntity
  8
0
  6
Continuous
 62
           7
100
AcDbVertex
100
AcDb2dVertex
 10
432.36760025
 20
-24.742770333333
 30
0.0
 70
           8
  0
VERTEX
  5
346
100
AcDbEntity
  8
0
  6
Continuous
 62
           7
100
AcDbVertex
100
AcDb2dVertex
 10
432.360567464344
 20
-24.782621933708
 30
0.0
 70
           8
  0
VERTEX
  5
347
100
AcDbEntity
  8
0
  6
Continuous
 62
           7
100
AcDbVertex
100
AcDb2dVertex
 10
432.35353468225
 20
-24.821274336333
 30
0.0
 70
           8
  0
VERTEX
  5
348
100
AcDbEntity
  8
0
  6
Continuous
 62
           7
100
AcDbVertex
100
AcDb2dVertex
 10
432.346501903531
 20
-24.858759793458
 30
0.0
 70
           8
  0
VERTEX
  5
349
100
AcDbEntity
  8
0
  6
Continuous
 62
           7
100
AcDbVertex
100
AcDb2dVertex
 10
432.339469128
 20
-24.895110557333
 30
0.0
 70
           8
  0
VERTEX
  5
34A
100
AcDbEntity
  8
0
  6
Continuous
 62
           7
100
AcDbVertex
100
AcDb2dVertex
 10
432.332436355469
 20
-24.930358880208
 30
0.0
 70
           8
  0
VERTEX
  5
34B
100
AcDbEntity
  8
0
  6
Continuous
 62
           7
100
AcDbVertex
100
AcDb2dVertex
 10
432.32540358575
 20
-24.964537014333
 30
0.0
 70
           8
  0
VERTEX
  5
34C
100
AcDbEntity
  8
0
  6
Continuous
 62
           7
100
AcDbVertex
100
AcDb2dVertex
 10
432.318370818656
 20
-24.997677211958
 30
0.0
 70
           8
  0
VERTEX
  5
34D
100
AcDbEntity
  8
0
  6
Continuous
 62
           7
100
AcDbVertex
100
AcDb2dVertex
 10
432.311338054
 20
-25.029811725333
 30
0.0
 70
           8
  0
VERTEX
  5
34E
100
AcDbEntity
  8
0
  6
Continuous
 62
           7
100
AcDbVertex
100
AcDb2dVertex
 10
432.304305291594
 20
-25.060972806708
 30
0.0
 70
           8
  0
VERTEX
  5
34F
100
AcDbEntity
  8
0
  6
Continuous
 62
           7
100
AcDbVertex
100
AcDb2dVertex
 10
432.29727253125
 20
-25.091192708333
 30
0.0
 70
           8
  0
VERTEX
  5
350
100
AcDbEntity
  8
0
  6
Continuous
 62
           7
100
AcDbVertex
100
AcDb2dVertex
 10
432.290239772781
 20
-25.120503682458
 30
0.0
 70
           8
  0
VERTEX
  5
351
100
AcDbEntity
  8
0
  6
Continuous
 62
           7
100
AcDbVertex
100
AcDb2dVertex
 10
432.283207016
 20
-25.148937981333
 30
0.0
 70
           8
  0
VERTEX
  5
352
100
AcDbEntity
  8
0
  6
Continuous
 62
           7
100
AcDbVertex
100
AcDb2dVertex
 10
432.276174260719
 20
-25.176527857208
 30
0.0
 70
           8
  0
VERTEX
  5
353
100
AcDbEntity
  8
0
  6
Continuous
 62
           7
100
AcDbVertex
100
AcDb2dVertex
 10
432.26914150675
 20
-25.203305562333
 30
0.0
 70
           8
  0
VERTEX
  5
354
100
AcDbEntity
  8
0
  6
Continuous
 62
           7
100
AcDbVertex
100
AcDb2dVertex
 10
432.262108753906
 20
-25.229303348958
 30
0.0
 70
           8
  0
VERTEX
  5
355
100
AcDbEntity
  8
0
  6
Continuous
 62
           7
100
AcDbVertex
100
AcDb2dVertex
 10
432.255076002
 20
-25.254553469333
 30
0.0
 70
           8
  0
VERTEX
  5
356
100
AcDbEntity
  8
0
  6
Continuous
 62
           7
100
AcDbVertex
100
AcDb2dVertex
 10
432.248043250844
 20
-25.279088175708
 30
0.0
 70
           8
  0
VERTEX
  5
357
100
AcDbEntity
  8
0
  6
Continuous
 62
           7
100
AcDbVertex
100
AcDb2dVertex
 10
432.24101050025
 20
-25.302939720333
 30
0.0
 70
           8
  0
VERTEX
  5
358
100
AcDbEntity
  8
0
  6
Continuous
 62
           7
100
AcDbVertex
100
AcDb2dVertex
 10
432.233977750031
 20
-25.326140355458
 30
0.0
 70
           8
  0
VERTEX
  5
359
100
AcDbEntity
  8
0
  6
Continuous
 62
           7
100
AcDbVertex
100
AcDb2dVertex
 10
432.226945
 20
-25.348722333333
 30
0.0
 70
           8
  0
VERTEX
  5
35A
100
AcDbEntity
  8
0
  6
Continuous
 62
           7
100
AcDbVertex
100
AcDb2dVertex
 10
432.219909319688
 20
-25.370713508167
 30
0.0
 70
           8
  0
VERTEX
  5
35B
100
AcDbEntity
  8
0
  6
Continuous
 62
           7
100
AcDbVertex
100
AcDb2dVertex
 10
432.2128560575
 20
-25.392124142
 30
0.0
 70
           8
  0
VERTEX
  5
35C
100
AcDbEntity
  8
0
  6
Continuous
 62
           7
100
AcDbVertex
100
AcDb2dVertex
 10
432.205767631563
 20
-25.412960098833
 30
0.0
 70
           8
  0
VERTEX
  5
35D
100
AcDbEntity
  8
0
  6
Continuous
 62
           7
100
AcDbVertex
100
AcDb2dVertex
 10
432.19862646
 20
-25.433227242667
 30
0.0
 70
           8
  0
VERTEX
  5
35E
100
AcDbEntity
  8
0
  6
Continuous
 62
           7
100
AcDbVertex
100
AcDb2dVertex
 10
432.191414960938
 20
-25.4529314375
 30
0.0
 70
           8
  0
VERTEX
  5
35F
100
AcDbEntity
  8
0
  6
Continuous
 62
           7
100
AcDbVertex
100
AcDb2dVertex
 10
432.1841155525
 20
-25.472078547333
 30
0.0
 70
           8
  0
VERTEX
  5
360
100
AcDbEntity
  8
0
  6
Continuous
 62
           7
100
AcDbVertex
100
AcDb2dVertex
 10
432.176710652813
 20
-25.490674436167
 30
0.0
 70
           8
  0
VERTEX
  5
361
100
AcDbEntity
  8
0
  6
Continuous
 62
           7
100
AcDbVertex
100
AcDb2dVertex
 10
432.16918268
 20
-25.508724968
 30
0.0
 70
           8
  0
VERTEX
  5
362
100
AcDbEntity
  8
0
  6
Continuous
 62
           7
100
AcDbVertex
100
AcDb2dVertex
 10
432.161514052188
 20
-25.526236006833
 30
0.0
 70
           8
  0
VERTEX
  5
363
100
AcDbEntity
  8
0
  6
Continuous
 62
           7
100
AcDbVertex
100
AcDb2dVertex
 10
432.1536871875
 20
-25.543213416667
 30
0.0
 70
           8
  0
VERTEX
  5
364
100
AcDbEntity
  8
0
  6
Continuous
 62
           7
100
AcDbVertex
100
AcDb2dVertex
 10
432.145684504063
 20
-25.5596630615
 30
0.0
 70
           8
  0
VERTEX
  5
365
100
AcDbEntity
  8
0
  6
Continuous
 62
           7
100
AcDbVertex
100
AcDb2dVertex
 10
432.13748842
 20
-25.575590805333
 30
0.0
 70
           8
  0
VERTEX
  5
366
100
AcDbEntity
  8
0
  6
Continuous
 62
           7
100
AcDbVertex
100
AcDb2dVertex
 10
432.129081353438
 20
-25.591002512167
 30
0.0
 70
           8
  0
VERTEX
  5
367
100
AcDbEntity
  8
0
  6
Continuous
 62
           7
100
AcDbVertex
100
AcDb2dVertex
 10
432.1204457225
 20
-25.605904046
 30
0.0
 70
           8
  0
VERTEX
  5
368
100
AcDbEntity
  8
0
  6
Continuous
 62
           7
100
AcDbVertex
100
AcDb2dVertex
 10
432.111563945313
 20
-25.620301270833
 30
0.0
 70
           8
  0
VERTEX
  5
369
100
AcDbEntity
  8
0
  6
Continuous
 62
           7
100
AcDbVertex
100
AcDb2dVertex
 10
432.10241844
 20
-25.634200050667
 30
0.0
 70
           8
  0
VERTEX
  5
36A
100
AcDbEntity
  8
0
  6
Continuous
 62
           7
100
AcDbVertex
100
AcDb2dVertex
 10
432.092991624688
 20
-25.6476062495
 30
0.0
 70
           8
  0
VERTEX
  5
36B
100
AcDbEntity
  8
0
  6
Continuous
 62
           7
100
AcDbVertex
100
AcDb2dVertex
 10
432.0832659175
 20
-25.660525731333
 30
0.0
 70
           8
  0
VERTEX
  5
36C
100
AcDbEntity
  8
0
  6
Continuous
 62
           7
100
AcDbVertex
100
AcDb2dVertex
 10
432.073223736563
 20
-25.672964360167
 30
0.0
 70
           8
  0
VERTEX
  5
36D
100
AcDbEntity
  8
0
  6
Continuous
 62
           7
100
AcDbVertex
100
AcDb2dVertex
 10
432.0628475
 20
-25.684928
 30
0.0
 70
           8
  0
VERTEX
  5
36E
100
AcDbEntity
  8
0
  6
Continuous
 62
           7
100
AcDbVertex
100
AcDb2dVertex
 10
432.052121091094
 20
-25.696426912917
 30
0.0
 70
           8
  0
VERTEX
  5
36F
100
AcDbEntity
  8
0
  6
Continuous
 62
           7
100
AcDbVertex
100
AcDb2dVertex
 10
432.04103425375
 20
-25.707488953333
 30
0.0
 70
           8
  0
VERTEX
  5
370
100
AcDbEntity
  8
0
  6
Continuous
 62
           7
100
AcDbVertex
100
AcDb2dVertex
 10
432.029578197031
 20
-25.71814637375
 30
0.0
 70
           8
  0
VERTEX
  5
371
100
AcDbEntity
  8
0
  6
Continuous
 62
           7
100
AcDbVertex
100
AcDb2dVertex
 10
432.01774413
 20
-25.728431426667
 30
0.0
 70
           8
  0
VERTEX
  5
372
100
AcDbEntity
  8
0
  6
Continuous
 62
           7
100
AcDbVertex
100
AcDb2dVertex
 10
432.005523261719
 20
-25.738376364583
 30
0.0
 70
           8
  0
VERTEX
  5
373
100
AcDbEntity
  8
0
  6
Continuous
 62
           7
100
AcDbVertex
100
AcDb2dVertex
 10
431.99290680125
 20
-25.74801344
 30
0.0
 70
           8
  0
VERTEX
  5
374
100
AcDbEntity
  8
0
  6
Continuous
 62
           7
100
AcDbVertex
100
AcDb2dVertex
 10
431.979885957656
 20
-25.757374905417
 30
0.0
 70
           8
  0
VERTEX
  5
375
100
AcDbEntity
  8
0
  6
Continuous
 62
           7
100
AcDbVertex
100
AcDb2dVertex
 10
431.96645194
 20
-25.766493013333
 30
0.0
 70
           8
  0
VERTEX
  5
376
100
AcDbEntity
  8
0
  6
Continuous
 62
           7
100
AcDbVertex
100
AcDb2dVertex
 10
431.952595957344
 20
-25.77540001625
 30
0.0
 70
           8
  0
VERTEX
  5
377
100
AcDbEntity
  8
0
  6
Continuous
 62
           7
100
AcDbVertex
100
AcDb2dVertex
 10
431.93830921875
 20
-25.784128166667
 30
0.0
 70
           8
  0
VERTEX
  5
378
100
AcDbEntity
  8
0
  6
Continuous
 62
           7
100
AcDbVertex
100
AcDb2dVertex
 10
431.923582933281
 20
-25.792709717083
 30
0.0
 70
           8
  0
VERTEX
  5
379
100
AcDbEntity
  8
0
  6
Continuous
 62
           7
100
AcDbVertex
100
AcDb2dVertex
 10
431.90840831
 20
-25.80117692
 30
0.0
 70
           8
  0
VERTEX
  5
37A
100
AcDbEntity
  8
0
  6
Continuous
 62
           7
100
AcDbVertex
100
AcDb2dVertex
 10
431.892776557969
 20
-25.809562027917
 30
0.0
 70
           8
  0
VERTEX
  5
37B
100
AcDbEntity
  8
0
  6
Continuous
 62
           7
100
AcDbVertex
100
AcDb2dVertex
 10
431.87667888625
 20
-25.817897293333
 30
0.0
 70
           8
  0
VERTEX
  5
37C
100
AcDbEntity
  8
0
  6
Continuous
 62
           7
100
AcDbVertex
100
AcDb2dVertex
 10
431.860106503906
 20
-25.82621496875
 30
0.0
 70
           8
  0
VERTEX
  5
37D
100
AcDbEntity
  8
0
  6
Continuous
 62
           7
100
AcDbVertex
100
AcDb2dVertex
 10
431.84305062
 20
-25.834547306667
 30
0.0
 70
           8
  0
VERTEX
  5
37E
100
AcDbEntity
  8
0
  6
Continuous
 62
           7
100
AcDbVertex
100
AcDb2dVertex
 10
431.825502443594
 20
-25.842926559583
 30
0.0
 70
           8
  0
VERTEX
  5
37F
100
AcDbEntity
  8
0
  6
Continuous
 62
           7
100
AcDbVertex
100
AcDb2dVertex
 10
431.80745318375
 20
-25.85138498
 30
0.0
 70
           8
  0
VERTEX
  5
380
100
AcDbEntity
  8
0
  6
Continuous
 62
           7
100
AcDbVertex
100
AcDb2dVertex
 10
431.788894049531
 20
-25.859954820417
 30
0.0
 70
           8
  0
VERTEX
  5
381
100
AcDbEntity
  8
0
  6
Continuous
 62
           7
100
AcDbVertex
100
AcDb2dVertex
 10
431.76981625
 20
-25.868668333333
 30
0.0
 70
           8
  0
VERTEX
  5
382
100
AcDbEntity
  8
0
  6
Continuous
 62
           7
100
AcDbVertex
100
AcDb2dVertex
 10
431.750202203156
 20
-25.877542133667
 30
0.0
 70
           8
  0
VERTEX
  5
383
100
AcDbEntity
  8
0
  6
Continuous
 62
           7
100
AcDbVertex
100
AcDb2dVertex
 10
431.72999916275
 20
-25.886530286
 30
0.0
 70
           8
  0
VERTEX
  5
384
100
AcDbEntity
  8
0
  6
Continuous
 62
           7
100
AcDbVertex
100
AcDb2dVertex
 10
431.709145591469
 20
-25.895571217333
 30
0.0
 70
           8
  0
VERTEX
  5
385
100
AcDbEntity
  8
0
  6
Continuous
 62
           7
100
AcDbVertex
100
AcDb2dVertex
 10
431.687579952
 20
-25.904603354667
 30
0.0
 70
           8
  0
VERTEX
  5
386
100
AcDbEntity
  8
0
  6
Continuous
 62
           7
100
AcDbVertex
100
AcDb2dVertex
 10
431.665240707031
 20
-25.913565125
 30
0.0
 70
           8
  0
VERTEX
  5
387
100
AcDbEntity
  8
0
  6
Continuous
 62
           7
100
AcDbVertex
100
AcDb2dVertex
 10
431.64206631925
 20
-25.922394955333
 30
0.0
 70
           8
  0
VERTEX
  5
388
100
AcDbEntity
  8
0
  6
Continuous
 62
           7
100
AcDbVertex
100
AcDb2dVertex
 10
431.617995251344
 20
-25.931031272667
 30
0.0
 70
           8
  0
VERTEX
  5
389
100
AcDbEntity
  8
0
  6
Continuous
 62
           7
100
AcDbVertex
100
AcDb2dVertex
 10
431.592965966
 20
-25.939412504
 30
0.0
 70
           8
  0
VERTEX
  5
38A
100
AcDbEntity
  8
0
  6
Continuous
 62
           7
100
AcDbVertex
100
AcDb2dVertex
 10
431.566916925906
 20
-25.947477076333
 30
0.0
 70
           8
  0
VERTEX
  5
38B
100
AcDbEntity
  8
0
  6
Continuous
 62
           7
100
AcDbVertex
100
AcDb2dVertex
 10
431.53978659375
 20
-25.955163416667
 30
0.0
 70
           8
  0
VERTEX
  5
38C
100
AcDbEntity
  8
0
  6
Continuous
 62
           7
100
AcDbVertex
100
AcDb2dVertex
 10
431.511513432219
 20
-25.962409952
 30
0.0
 70
           8
  0
VERTEX
  5
38D
100
AcDbEntity
  8
0
  6
Continuous
 62
           7
100
AcDbVertex
100
AcDb2dVertex
 10
431.482035904
 20
-25.969155109333
 30
0.0
 70
           8
  0
VERTEX
  5
38E
100
AcDbEntity
  8
0
  6
Continuous
 62
           7
100
AcDbVertex
100
AcDb2dVertex
 10
431.451292471781
 20
-25.975337315667
 30
0.0
 70
           8
  0
VERTEX
  5
38F
100
AcDbEntity
  8
0
  6
Continuous
 62
           7
100
AcDbVertex
100
AcDb2dVertex
 10
431.41922159825
 20
-25.980894998
 30
0.0
 70
           8
  0
VERTEX
  5
390
100
AcDbEntity
  8
0
  6
Continuous
 62
           7
100
AcDbVertex
100
AcDb2dVertex
 10
431.385761746094
 20
-25.985766583333
 30
0.0
 70
           8
  0
VERTEX
  5
391
100
AcDbEntity
  8
0
  6
Continuous
 62
           7
100
AcDbVertex
100
AcDb2dVertex
 10
431.350851378
 20
-25.989890498667
 30
0.0
 70
           8
  0
VERTEX
  5
392
100
AcDbEntity
  8
0
  6
Continuous
 62
           7
100
AcDbVertex
100
AcDb2dVertex
 10
431.314428956656
 20
-25.993205171
 30
0.0
 70
           8
  0
VERTEX
  5
393
100
AcDbEntity
  8
0
  6
Continuous
 62
           7
100
AcDbVertex
100
AcDb2dVertex
 10
431.27643294475
 20
-25.995649027333
 30
0.0
 70
           8
  0
VERTEX
  5
394
100
AcDbEntity
  8
0
  6
Continuous
 62
           7
100
AcDbVertex
100
AcDb2dVertex
 10
431.236801804969
 20
-25.997160494667
 30
0.0
 70
           8
  0
VERTEX
  5
395
100
AcDbEntity
  8
0
  6
Continuous
 62
           7
100
AcDbVertex
100
AcDb2dVertex
 10
431.195474
 20
-25.997678
 30
0.0
 70
           8
  0
SEQEND
  5
396
100
AcDbEntity
  8
0
  6
Continuous
 62
           7
  0
LINE
  5
397
100
AcDbEntity
  8
0
370
           0
  6
Continuous
 62
           7
100
AcDbLine
 10
430.956787
 20
-23.652057
 30
0.0
 11
432.508256
 21
-23.652057
 31
0.0
  0
LINE
  5
398
100
AcDbEntity
  8
0
370
           0
  6
Continuous
 62
           7
100
AcDbLine
 10
422.165129
 20
-23.136021
 30
0.0
 11
425.626099
 21
-23.136021
 31
0.0
  0
LINE
  5
399
100
AcDbEntity
  8
0
370
           0
  6
Continuous
 62
           7
100
AcDbLine
 10
421.051254
 20
-23.886619
 30
0.0
 11
422.204911
 21
-23.089109
 31
0.0
  0
LINE
  5
39A
100
AcDbEntity
  8
0
370
           0
  6
Continuous
 62
           7
100
AcDbLine
 10
428.450568
 20
-22.10395
 30
0.0
 11
431.473943
 21
-24.074269
 31
0.0
  0
LINE
  5
39B
100
AcDbEntity
  8
0
370
           0
  6
Continuous
 62
           7
100
AcDbLine
 10
419.818035
 20
-22.103948
 30
0.0
 11
428.450568
 21
-22.103948
 31
0.0
  0
INSERT
  5
3BA
100
AcDbEntity
  8
0
 60
           1
100
AcDbBlockReference
 66
           1
  2
OVERHEAD
 10
-364.0
 20
-257.0
 30
0.0
1001
AVE_RENDER
1002
{
1070
           0
1000
LIGHT_0
1011
-363.0
1021
-257.0
1031
0.0
1041
200.0
1010
0.094117647059
1020
0.094117647059
1030
0.094117647059
1002
{
1070
           0
1070
           1
1040
0.0
1040
0.0
1040
3.0
1002
}
1002
{
1070
           9
1070
          21
1070
          15
1070
           0
1040
37.62
1040
122.37
1002
}
1002
}
1001
TCAD
1000
TCW_LIGTH
1002
{
1070
           1
1002
}
  0
ATTRIB
  5
3BB
100
AcDbEntity
  8
ASHADE
  6
Continuous
 62
           1
100
AcDbText
 10
-364.0
 20
-257.0
 30
0.0
 40
0.2
  1
LIGHT_0
  7
ASHADE
 72
           1
 11
-364.0
 21
-257.1
 31
0.0
100
AcDbAttribute
  2
SNAME
 70
           0
  0
ATTRIB
  5
3BC
100
AcDbEntity
  8
ASHADE
  6
Continuous
 62
           7
100
AcDbText
 10
-364.0
 20
-257.0
 30
0.0
 40
0.01
  1

100
AcDbAttribute
  2
GNAME
 70
           1
  0
ATTRIB
  5
3BD
100
AcDbEntity
  8
ASHADE
  6
Continuous
 62
           7
100
AcDbText
 10
-364.0
 20
-257.0
 30
0.0
 40
0.01
  1

100
AcDbAttribute
  2
LAX
 70
           1
  0
ATTRIB
  5
3BE
100
AcDbEntity
  8
ASHADE
  6
Continuous
 62
           7
100
AcDbText
 10
-364.0
 20
-257.0
 30
0.0
 40
0.01
  1

100
AcDbAttribute
  2
LAY
 70
           1
  0
ATTRIB
  5
3BF
100
AcDbEntity
  8
ASHADE
  6
Continuous
 62
           7
100
AcDbText
 10
-364.0
 20
-257.0
 30
0.0
 40
0.01
  1

100
AcDbAttribute
  2
LAZ
 70
           1
  0
ATTRIB
  5
3C0
100
AcDbEntity
  8
ASHADE
  6
Continuous
 62
           7
100
AcDbText
 10
-364.0
 20
-257.0
 30
0.0
 40
0.01
  1
1
100
AcDbAttribute
  2
INTENSITY
 70
           1
  0
ATTRIB
  5
3C1
100
AcDbEntity
  8
ASHADE
  6
Continuous
 62
           7
100
AcDbText
 10
-364.0
 20
-257.0
 30
0.0
 40
0.01
  1
1,1,1
100
AcDbAttribute
  2
COLOR
 70
           1
  0
ATTRIB
  5
3C2
100
AcDbEntity
  8
ASHADE
  6
Continuous
 62
           7
100
AcDbText
 10
-364.0
 20
-257.0
 30
0.0
 40
0.01
  1
0
100
AcDbAttribute
  2
CONEA
 70
           1
  0
ATTRIB
  5
3C3
100
AcDbEntity
  8
ASHADE
  6
Continuous
 62
           7
100
AcDbText
 10
-364.0
 20
-257.0
 30
0.0
 40
0.01
  1
-1
100
AcDbAttribute
  2
CONED
 70
           1
  0
ATTRIB
  5
3C4
100
AcDbEntity
  8
ASHADE
  6
Continuous
 62
           7
100
AcDbText
 10
-364.0
 20
-257.0
 30
0.0
 40
0.01
  1
-1
100
AcDbAttribute
  2
BEAMD
 70
           1
  0
SEQEND
  5
3C5
100
AcDbEntity
  8
0
  0
INSERT
  5
3C6
100
AcDbEntity
  8
0
 60
           1
100
AcDbBlockReference
 66
           1
  2
OVERHEAD
 10
728.0
 20
621.0
 30
0.0
1001
AVE_RENDER
1002
{
1070
           0
1000
LIGHT_1
1011
729.0
1021
621.0
1031
0.0
1041
200.0
1010
0.094117647059
1020
0.094117647059
1030
0.094117647059
1002
{
1070
           0
1070
           1
1040
0.0
1040
0.0
1040
3.0
1002
}
1002
{
1070
           9
1070
          21
1070
          15
1070
           0
1040
37.62
1040
122.37
1002
}
1002
}
1001
TCAD
1000
TCW_LIGTH
1002
{
1070
           1
1002
}
  0
ATTRIB
  5
3C7
100
AcDbEntity
  8
ASHADE
  6
Continuous
 62
           1
100
AcDbText
 10
728.0
 20
621.0
 30
0.0
 40
0.2
  1
LIGHT_1
  7
ASHADE
 72
           1
 11
728.0
 21
620.9
 31
0.0
100
AcDbAttribute
  2
SNAME
 70
           0
  0
ATTRIB
  5
3C8
100
AcDbEntity
  8
ASHADE
  6
Continuous
 62
           7
100
AcDbText
 10
728.0
 20
621.0
 30
0.0
 40
0.01
  1

100
AcDbAttribute
  2
GNAME
 70
           1
  0
ATTRIB
  5
3C9
100
AcDbEntity
  8
ASHADE
  6
Continuous
 62
           7
100
AcDbText
 10
728.0
 20
621.0
 30
0.0
 40
0.01
  1

100
AcDbAttribute
  2
LAX
 70
           1
  0
ATTRIB
  5
3CA
100
AcDbEntity
  8
ASHADE
  6
Continuous
 62
           7
100
AcDbText
 10
728.0
 20
621.0
 30
0.0
 40
0.01
  1

100
AcDbAttribute
  2
LAY
 70
           1
  0
ATTRIB
  5
3CB
100
AcDbEntity
  8
ASHADE
  6
Continuous
 62
           7
100
AcDbText
 10
728.0
 20
621.0
 30
0.0
 40
0.01
  1

100
AcDbAttribute
  2
LAZ
 70
           1
  0
ATTRIB
  5
3CC
100
AcDbEntity
  8
ASHADE
  6
Continuous
 62
           7
100
AcDbText
 10
728.0
 20
621.0
 30
0.0
 40
0.01
  1
1
100
AcDbAttribute
  2
INTENSITY
 70
           1
  0
ATTRIB
  5
3CD
100
AcDbEntity
  8
ASHADE
  6
Continuous
 62
           7
100
AcDbText
 10
728.0
 20
621.0
 30
0.0
 40
0.01
  1
1,1,1
100
AcDbAttribute
  2
COLOR
 70
           1
  0
ATTRIB
  5
3CE
100
AcDbEntity
  8
ASHADE
  6
Continuous
 62
           7
100
AcDbText
 10
728.0
 20
621.0
 30
0.0
 40
0.01
  1
0
100
AcDbAttribute
  2
CONEA
 70
           1
  0
ATTRIB
  5
3CF
100
AcDbEntity
  8
ASHADE
  6
Continuous
 62
           7
100
AcDbText
 10
728.0
 20
621.0
 30
0.0
 40
0.01
  1
-1
100
AcDbAttribute
  2
CONED
 70
           1
  0
ATTRIB
  5
3D0
100
AcDbEntity
  8
ASHADE
  6
Continuous
 62
           7
100
AcDbText
 10
728.0
 20
621.0
 30
0.0
 40
0.01
  1
-1
100
AcDbAttribute
  2
BEAMD
 70
           1
  0
SEQEND
  5
3D1
100
AcDbEntity
  8
0
  0
INSERT
  5
3D2
100
AcDbEntity
  8
0
 60
           1
100
AcDbBlockReference
 66
           1
  2
OVERHEAD
 10
728.0
 20
-257.0
 30
0.0
1001
AVE_RENDER
1002
{
1070
           0
1000
LIGHT_2
1011
729.0
1021
-257.0
1031
0.0
1041
200.0
1010
0.094117647059
1020
0.094117647059
1030
0.094117647059
1002
{
1070
           0
1070
           1
1040
0.0
1040
0.0
1040
3.0
1002
}
1002
{
1070
           9
1070
          21
1070
          15
1070
           0
1040
37.62
1040
122.37
1002
}
1002
}
1001
TCAD
1000
TCW_LIGTH
1002
{
1070
           1
1002
}
  0
ATTRIB
  5
3D3
100
AcDbEntity
  8
ASHADE
  6
Continuous
 62
           1
100
AcDbText
 10
728.0
 20
-257.0
 30
0.0
 40
0.2
  1
LIGHT_2
  7
ASHADE
 72
           1
 11
728.0
 21
-257.1
 31
0.0
100
AcDbAttribute
  2
SNAME
 70
           0
  0
ATTRIB
  5
3D4
100
AcDbEntity
  8
ASHADE
  6
Continuous
 62
           7
100
AcDbText
 10
728.0
 20
-257.0
 30
0.0
 40
0.01
  1

100
AcDbAttribute
  2
GNAME
 70
           1
  0
ATTRIB
  5
3D5
100
AcDbEntity
  8
ASHADE
  6
Continuous
 62
           7
100
AcDbText
 10
728.0
 20
-257.0
 30
0.0
 40
0.01
  1

100
AcDbAttribute
  2
LAX
 70
           1
  0
ATTRIB
  5
3D6
100
AcDbEntity
  8
ASHADE
  6
Continuous
 62
           7
100
AcDbText
 10
728.0
 20
-257.0
 30
0.0
 40
0.01
  1

100
AcDbAttribute
  2
LAY
 70
           1
  0
ATTRIB
  5
3D7
100
AcDbEntity
  8
ASHADE
  6
Continuous
 62
           7
100
AcDbText
 10
728.0
 20
-257.0
 30
0.0
 40
0.01
  1

100
AcDbAttribute
  2
LAZ
 70
           1
  0
ATTRIB
  5
3D8
100
AcDbEntity
  8
ASHADE
  6
Continuous
 62
           7
100
AcDbText
 10
728.0
 20
-257.0
 30
0.0
 40
0.01
  1
1
100
AcDbAttribute
  2
INTENSITY
 70
           1
  0
ATTRIB
  5
3D9
100
AcDbEntity
  8
ASHADE
  6
Continuous
 62
           7
100
AcDbText
 10
728.0
 20
-257.0
 30
0.0
 40
0.01
  1
1,1,1
100
AcDbAttribute
  2
COLOR
 70
           1
  0
ATTRIB
  5
3DA
100
AcDbEntity
  8
ASHADE
  6
Continuous
 62
           7
100
AcDbText
 10
728.0
 20
-257.0
 30
0.0
 40
0.01
  1
0
100
AcDbAttribute
  2
CONEA
 70
           1
  0
ATTRIB
  5
3DB
100
AcDbEntity
  8
ASHADE
  6
Continuous
 62
           7
100
AcDbText
 10
728.0
 20
-257.0
 30
0.0
 40
0.01
  1
-1
100
AcDbAttribute
  2
CONED
 70
           1
  0
ATTRIB
  5
3DC
100
AcDbEntity
  8
ASHADE
  6
Continuous
 62
           7
100
AcDbText
 10
728.0
 20
-257.0
 30
0.0
 40
0.01
  1
-1
100
AcDbAttribute
  2
BEAMD
 70
           1
  0
SEQEND
  5
3DD
100
AcDbEntity
  8
0
  0
INSERT
  5
3DE
100
AcDbEntity
  8
0
 60
           1
100
AcDbBlockReference
 66
           1
  2
OVERHEAD
 10
-364.0
 20
514.0
 30
0.0
1001
AVE_RENDER
1002
{
1070
           0
1000
LIGHT_3
1011
-363.0
1021
514.0
1031
0.0
1041
200.0
1010
0.094117647059
1020
0.094117647059
1030
0.094117647059
1002
{
1070
           0
1070
           1
1040
0.0
1040
0.0
1040
3.0
1002
}
1002
{
1070
           9
1070
          21
1070
          15
1070
           0
1040
37.62
1040
122.37
1002
}
1002
}
1001
TCAD
1000
TCW_LIGTH
1002
{
1070
           1
1002
}
  0
ATTRIB
  5
3DF
100
AcDbEntity
  8
ASHADE
  6
Continuous
 62
           1
100
AcDbText
 10
-364.0
 20
514.0
 30
0.0
 40
0.2
  1
LIGHT_3
  7
ASHADE
 72
           1
 11
-364.0
 21
513.9
 31
0.0
100
AcDbAttribute
  2
SNAME
 70
           0
  0
ATTRIB
  5
3E0
100
AcDbEntity
  8
ASHADE
  6
Continuous
 62
           7
100
AcDbText
 10
-364.0
 20
514.0
 30
0.0
 40
0.01
  1

100
AcDbAttribute
  2
GNAME
 70
           1
  0
ATTRIB
  5
3E1
100
AcDbEntity
  8
ASHADE
  6
Continuous
 62
           7
100
AcDbText
 10
-364.0
 20
514.0
 30
0.0
 40
0.01
  1

100
AcDbAttribute
  2
LAX
 70
           1
  0
ATTRIB
  5
3E2
100
AcDbEntity
  8
ASHADE
  6
Continuous
 62
           7
100
AcDbText
 10
-364.0
 20
514.0
 30
0.0
 40
0.01
  1

100
AcDbAttribute
  2
LAY
 70
           1
  0
ATTRIB
  5
3E3
100
AcDbEntity
  8
ASHADE
  6
Continuous
 62
           7
100
AcDbText
 10
-364.0
 20
514.0
 30
0.0
 40
0.01
  1

100
AcDbAttribute
  2
LAZ
 70
           1
  0
ATTRIB
  5
3E4
100
AcDbEntity
  8
ASHADE
  6
Continuous
 62
           7
100
AcDbText
 10
-364.0
 20
514.0
 30
0.0
 40
0.01
  1
1
100
AcDbAttribute
  2
INTENSITY
 70
           1
  0
ATTRIB
  5
3E5
100
AcDbEntity
  8
ASHADE
  6
Continuous
 62
           7
100
AcDbText
 10
-364.0
 20
514.0
 30
0.0
 40
0.01
  1
1,1,1
100
AcDbAttribute
  2
COLOR
 70
           1
  0
ATTRIB
  5
3E6
100
AcDbEntity
  8
ASHADE
  6
Continuous
 62
           7
100
AcDbText
 10
-364.0
 20
514.0
 30
0.0
 40
0.01
  1
0
100
AcDbAttribute
  2
CONEA
 70
           1
  0
ATTRIB
  5
3E7
100
AcDbEntity
  8
ASHADE
  6
Continuous
 62
           7
100
AcDbText
 10
-364.0
 20
514.0
 30
0.0
 40
0.01
  1
-1
100
AcDbAttribute
  2
CONED
 70
           1
  0
ATTRIB
  5
3E8
100
AcDbEntity
  8
ASHADE
  6
Continuous
 62
           7
100
AcDbText
 10
-364.0
 20
514.0
 30
0.0
 40
0.01
  1
-1
100
AcDbAttribute
  2
BEAMD
 70
           1
  0
SEQEND
  5
3E9
100
AcDbEntity
  8
0
  0
INSERT
  5
3FE
100
AcDbEntity
  8
0
 60
           1
100
AcDbBlockReference
 66
           1
  2
DIRECT
 10
3093.979201558931
 20
1156.466755575138
 30
-14.338534453527
 42
1.0
 50
-54.776499524936
210
-0.0036666381261713
220
-0.0025888076879836
230
0.9999899268690692
1001
AVE_RENDER
1002
{
1070
           0
1000
LIGHT_4
1011
3276.0
1021
1285.0
1031
1.0
1041
200.0
1010
0.78431372549
1020
0.78431372549
1030
0.78431372549
1002
{
1070
           0
1070
           1
1040
0.0
1040
0.0
1040
3.0
1002
}
1002
{
1070
           9
1070
          21
1070
          15
1070
           0
1040
37.62
1040
122.37
1002
}
1002
}
1001
TCAD
1000
TCW_LIGTH
1002
{
1070
           1
1002
}
  0
ATTRIB
  5
3FF
100
AcDbEntity
  8
ASHADE
  6
Continuous
 62
           1
100
AcDbText
 10
3093.979201558931
 20
1156.466755575138
 30
-14.338534453527
 40
0.2
  1
LIGHT_4
 50
-54.776499524936
  7
ASHADE
 72
           1
 11
3093.897510718957
 21
1156.409078832301
 31
-14.338534453527
210
-0.0036666381261713
220
-0.0025888076879836
230
0.9999899268690692
100
AcDbAttribute
  2
SNAME
 70
           0
  0
ATTRIB
  5
400
100
AcDbEntity
  8
ASHADE
  6
Continuous
 62
           7
100
AcDbText
 10
3093.979201558931
 20
1156.466755575138
 30
-14.338534453527
 40
0.01
  1

 50
-54.776499524936
210
-0.0036666381261713
220
-0.0025888076879836
230
0.9999899268690692
100
AcDbAttribute
  2
GNAME
 70
           1
  0
ATTRIB
  5
401
100
AcDbEntity
  8
ASHADE
  6
Continuous
 62
           7
100
AcDbText
 10
3093.979201558931
 20
1156.466755575138
 30
-14.338534453527
 40
0.01
  1

 50
-54.776499524936
210
-0.0036666381261713
220
-0.0025888076879836
230
0.9999899268690692
100
AcDbAttribute
  2
LAX
 70
           1
  0
ATTRIB
  5
402
100
AcDbEntity
  8
ASHADE
  6
Continuous
 62
           7
100
AcDbText
 10
3093.979201558931
 20
1156.466755575138
 30
-14.338534453527
 40
0.01
  1

 50
-54.776499524936
210
-0.0036666381261713
220
-0.0025888076879836
230
0.9999899268690692
100
AcDbAttribute
  2
LAY
 70
           1
  0
ATTRIB
  5
403
100
AcDbEntity
  8
ASHADE
  6
Continuous
 62
           7
100
AcDbText
 10
3093.979201558931
 20
1156.466755575138
 30
-14.338534453527
 40
0.01
  1

 50
-54.776499524936
210
-0.0036666381261713
220
-0.0025888076879836
230
0.9999899268690692
100
AcDbAttribute
  2
LAZ
 70
           1
  0
ATTRIB
  5
404
100
AcDbEntity
  8
ASHADE
  6
Continuous
 62
           7
100
AcDbText
 10
3093.979201558931
 20
1156.466755575138
 30
-14.338534453527
 40
0.01
  1
1
 50
-54.776499524936
210
-0.0036666381261713
220
-0.0025888076879836
230
0.9999899268690692
100
AcDbAttribute
  2
INTENSITY
 70
           1
  0
ATTRIB
  5
405
100
AcDbEntity
  8
ASHADE
  6
Continuous
 62
           7
100
AcDbText
 10
3093.979201558931
 20
1156.466755575138
 30
-14.338534453527
 40
0.01
  1
1,1,1
 50
-54.776499524936
210
-0.0036666381261713
220
-0.0025888076879836
230
0.9999899268690692
100
AcDbAttribute
  2
COLOR
 70
           1
  0
ATTRIB
  5
406
100
AcDbEntity
  8
ASHADE
  6
Continuous
 62
           7
100
AcDbText
 10
3093.979201558931
 20
1156.466755575138
 30
-14.338534453527
 40
0.01
  1
0
 50
-54.776499524936
210
-0.0036666381261713
220
-0.0025888076879836
230
0.9999899268690692
100
AcDbAttribute
  2
CONEA
 70
           1
  0
ATTRIB
  5
407
100
AcDbEntity
  8
ASHADE
  6
Continuous
 62
           7
100
AcDbText
 10
3093.979201558931
 20
1156.466755575138
 30
-14.338534453527
 40
0.01
  1
-1
 50
-54.776499524936
210
-0.0036666381261713
220
-0.0025888076879836
230
0.9999899268690692
100
AcDbAttribute
  2
CONED
 70
           1
  0
ATTRIB
  5
408
100
AcDbEntity
  8
ASHADE
  6
Continuous
 62
           7
100
AcDbText
 10
3093.979201558931
 20
1156.466755575138
 30
-14.338534453527
 40
0.01
  1
-1
 50
-54.776499524936
210
-0.0036666381261713
220
-0.0025888076879836
230
0.9999899268690692
100
AcDbAttribute
  2
BEAMD
 70
           1
  0
SEQEND
  5
409
100
AcDbEntity
  8
0
  0
INSERT
  5
40A
100
AcDbEntity
  8
0
 60
           1
100
AcDbBlockReference
 66
           1
  2
OVERHEAD
 10
0.0
 20
0.0
 30
0.0
1001
AVE_RENDER
1002
{
1070
           0
1000
LIGHT_5
1011
1.0
1021
0.0
1031
0.0
1041
200.0
1010
0.329411764706
1020
0.329411764706
1030
0.329411764706
1002
{
1070
           0
1070
           1
1040
0.0
1040
0.0
1040
3.0
1002
}
1002
{
1070
           9
1070
          21
1070
          15
1070
           0
1040
37.62
1040
122.37
1002
}
1002
}
1001
TCAD
1000
TCW_LIGTH
1002
{
1070
           1
1002
}
  0
ATTRIB
  5
40B
100
AcDbEntity
  8
ASHADE
  6
Continuous
 62
           1
100
AcDbText
 10
0.0
 20
0.0
 30
0.0
 40
0.2
  1
LIGHT_5
  7
ASHADE
 72
           1
 11
0.0
 21
-0.1
 31
0.0
100
AcDbAttribute
  2
SNAME
 70
           0
  0
ATTRIB
  5
40C
100
AcDbEntity
  8
ASHADE
  6
Continuous
 62
           7
100
AcDbText
 10
0.0
 20
0.0
 30
0.0
 40
0.01
  1

100
AcDbAttribute
  2
GNAME
 70
           1
  0
ATTRIB
  5
40D
100
AcDbEntity
  8
ASHADE
  6
Continuous
 62
           7
100
AcDbText
 10
0.0
 20
0.0
 30
0.0
 40
0.01
  1

100
AcDbAttribute
  2
LAX
 70
           1
  0
ATTRIB
  5
40E
100
AcDbEntity
  8
ASHADE
  6
Continuous
 62
           7
100
AcDbText
 10
0.0
 20
0.0
 30
0.0
 40
0.01
  1

100
AcDbAttribute
  2
LAY
 70
           1
  0
ATTRIB
  5
40F
100
AcDbEntity
  8
ASHADE
  6
Continuous
 62
           7
100
AcDbText
 10
0.0
 20
0.0
 30
0.0
 40
0.01
  1

100
AcDbAttribute
  2
LAZ
 70
           1
  0
ATTRIB
  5
410
100
AcDbEntity
  8
ASHADE
  6
Continuous
 62
           7
100
AcDbText
 10
0.0
 20
0.0
 30
0.0
 40
0.01
  1
1
100
AcDbAttribute
  2
INTENSITY
 70
           1
  0
ATTRIB
  5
411
100
AcDbEntity
  8
ASHADE
  6
Continuous
 62
           7
100
AcDbText
 10
0.0
 20
0.0
 30
0.0
 40
0.01
  1
1,1,1
100
AcDbAttribute
  2
COLOR
 70
           1
  0
ATTRIB
  5
412
100
AcDbEntity
  8
ASHADE
  6
Continuous
 62
           7
100
AcDbText
 10
0.0
 20
0.0
 30
0.0
 40
0.01
  1
0
100
AcDbAttribute
  2
CONEA
 70
           1
  0
ATTRIB
  5
413
100
AcDbEntity
  8
ASHADE
  6
Continuous
 62
           7
100
AcDbText
 10
0.0
 20
0.0
 30
0.0
 40
0.01
  1
-1
100
AcDbAttribute
  2
CONED
 70
           1
  0
ATTRIB
  5
414
100
AcDbEntity
  8
ASHADE
  6
Continuous
 62
           7
100
AcDbText
 10
0.0
 20
0.0
 30
0.0
 40
0.01
  1
-1
100
AcDbAttribute
  2
BEAMD
 70
           1
  0
SEQEND
  5
415
100
AcDbEntity
  8
0
  0
INSERT
  5
416
100
AcDbEntity
  8
0
 60
           1
100
AcDbBlockReference
 66
           1
  2
OVERHEAD
 10
0.0
 20
0.0
 30
0.0
1001
AVE_RENDER
1002
{
1070
           0
1000
LIGHT_6
1011
1.0
1021
0.0
1031
0.0
1041
200.0
1010
0.858823529412
1020
0.858823529412
1030
0.858823529412
1002
{
1070
           0
1070
           1
1040
0.0
1040
0.0
1040
3.0
1002
}
1002
{
1070
           9
1070
          21
1070
          15
1070
           0
1040
37.62
1040
122.37
1002
}
1002
}
1001
TCAD
1000
TCW_LIGTH
1002
{
1070
           1
1002
}
  0
ATTRIB
  5
417
100
AcDbEntity
  8
ASHADE
  6
Continuous
 62
           1
100
AcDbText
 10
0.0
 20
0.0
 30
0.0
 40
0.2
  1
LIGHT_6
  7
ASHADE
 72
           1
 11
0.0
 21
-0.1
 31
0.0
100
AcDbAttribute
  2
SNAME
 70
           0
  0
ATTRIB
  5
418
100
AcDbEntity
  8
ASHADE
  6
Continuous
 62
           7
100
AcDbText
 10
0.0
 20
0.0
 30
0.0
 40
0.01
  1

100
AcDbAttribute
  2
GNAME
 70
           1
  0
ATTRIB
  5
419
100
AcDbEntity
  8
ASHADE
  6
Continuous
 62
           7
100
AcDbText
 10
0.0
 20
0.0
 30
0.0
 40
0.01
  1

100
AcDbAttribute
  2
LAX
 70
           1
  0
ATTRIB
  5
41A
100
AcDbEntity
  8
ASHADE
  6
Continuous
 62
           7
100
AcDbText
 10
0.0
 20
0.0
 30
0.0
 40
0.01
  1

100
AcDbAttribute
  2
LAY
 70
           1
  0
ATTRIB
  5
41B
100
AcDbEntity
  8
ASHADE
  6
Continuous
 62
           7
100
AcDbText
 10
0.0
 20
0.0
 30
0.0
 40
0.01
  1

100
AcDbAttribute
  2
LAZ
 70
           1
  0
ATTRIB
  5
41C
100
AcDbEntity
  8
ASHADE
  6
Continuous
 62
           7
100
AcDbText
 10
0.0
 20
0.0
 30
0.0
 40
0.01
  1
1
100
AcDbAttribute
  2
INTENSITY
 70
           1
  0
ATTRIB
  5
41D
100
AcDbEntity
  8
ASHADE
  6
Continuous
 62
           7
100
AcDbText
 10
0.0
 20
0.0
 30
0.0
 40
0.01
  1
1,1,1
100
AcDbAttribute
  2
COLOR
 70
           1
  0
ATTRIB
  5
41E
100
AcDbEntity
  8
ASHADE
  6
Continuous
 62
           7
100
AcDbText
 10
0.0
 20
0.0
 30
0.0
 40
0.01
  1
0
100
AcDbAttribute
  2
CONEA
 70
           1
  0
ATTRIB
  5
41F
100
AcDbEntity
  8
ASHADE
  6
Continuous
 62
           7
100
AcDbText
 10
0.0
 20
0.0
 30
0.0
 40
0.01
  1
-1
100
AcDbAttribute
  2
CONED
 70
           1
  0
ATTRIB
  5
420
100
AcDbEntity
  8
ASHADE
  6
Continuous
 62
           7
100
AcDbText
 10
0.0
 20
0.0
 30
0.0
 40
0.01
  1
-1
100
AcDbAttribute
  2
BEAMD
 70
           1
  0
SEQEND
  5
421
100
AcDbEntity
  8
0
  0
INSERT
  5
44A
100
AcDbEntity
  8
0
 60
           1
100
AcDbBlockReference
 66
           1
  2
SH_SPOT
 10
-182.0
 20
0.0
 30
128.5
210
0.0
220
1.0
230
0.0
1001
AVE_RENDER
1002
{
1070
           0
1000
LIGHT_7
1011
182.0
1021
128.5
1031
1.0
1041
200.0
1010
0.858823529412
1020
0.858823529412
1030
0.858823529412
1002
{
1070
           1
1070
           0
1040
0.0
1040
0.0
1040
3.0
1002
}
1002
{
1070
           9
1070
          21
1070
          15
1070
           0
1040
37.62
1040
122.37
1002
}
1002
}
1001
TCAD
1000
TCW_LIGTH
1002
{
1070
           1
1002
}
  0
ATTRIB
  5
44B
100
AcDbEntity
  8
ASHADE
  6
Continuous
 62
           1
100
AcDbText
 10
-182.0
 20
0.0
 30
128.5
 40
0.2
  1
LIGHT_7
  7
ASHADE
 72
           1
 11
-182.0
 21
-0.1
 31
128.5
210
0.0
220
1.0
230
0.0
100
AcDbAttribute
  2
SNAME
 70
           0
  0
ATTRIB
  5
44C
100
AcDbEntity
  8
ASHADE
  6
Continuous
 62
           7
100
AcDbText
 10
-182.0
 20
0.0
 30
128.5
 40
0.01
  1

210
0.0
220
1.0
230
0.0
100
AcDbAttribute
  2
GNAME
 70
           1
  0
ATTRIB
  5
44D
100
AcDbEntity
  8
ASHADE
  6
Continuous
 62
           7
100
AcDbText
 10
-182.0
 20
0.0
 30
128.5
 40
0.01
  1

210
0.0
220
1.0
230
0.0
100
AcDbAttribute
  2
LAX
 70
           1
  0
ATTRIB
  5
44E
100
AcDbEntity
  8
ASHADE
  6
Continuous
 62
           7
100
AcDbText
 10
-182.0
 20
0.0
 30
128.5
 40
0.01
  1

210
0.0
220
1.0
230
0.0
100
AcDbAttribute
  2
LAY
 70
           1
  0
ATTRIB
  5
44F
100
AcDbEntity
  8
ASHADE
  6
Continuous
 62
           7
100
AcDbText
 10
-182.0
 20
0.0
 30
128.5
 40
0.01
  1

210
0.0
220
1.0
230
0.0
100
AcDbAttribute
  2
LAZ
 70
           1
  0
ATTRIB
  5
450
100
AcDbEntity
  8
ASHADE
  6
Continuous
 62
           7
100
AcDbText
 10
-182.0
 20
0.0
 30
128.5
 40
0.01
  1
1
210
0.0
220
1.0
230
0.0
100
AcDbAttribute
  2
INTENSITY
 70
           1
  0
ATTRIB
  5
451
100
AcDbEntity
  8
ASHADE
  6
Continuous
 62
           7
100
AcDbText
 10
-182.0
 20
0.0
 30
128.5
 40
0.01
  1
1,1,1
210
0.0
220
1.0
230
0.0
100
AcDbAttribute
  2
COLOR
 70
           1
  0
ATTRIB
  5
452
100
AcDbEntity
  8
ASHADE
  6
Continuous
 62
           7
100
AcDbText
 10
-182.0
 20
0.0
 30
128.5
 40
0.01
  1
0
210
0.0
220
1.0
230
0.0
100
AcDbAttribute
  2
ZSIZE
 70
           1
  0
ATTRIB
  5
453
100
AcDbEntity
  8
ASHADE
  6
Continuous
 62
           7
100
AcDbText
 10
-182.0
 20
0.0
 30
128.5
 40
0.01
  1
-1
210
0.0
220
1.0
230
0.0
100
AcDbAttribute
  2
BIASMIN
 70
           1
  0
ATTRIB
  5
454
100
AcDbEntity
  8
ASHADE
  6
Continuous
 62
           7
100
AcDbText
 10
-182.0
 20
0.0
 30
128.5
 40
0.01
  1
-1
210
0.0
220
1.0
230
0.0
100
AcDbAttribute
  2
BIASMAX
 70
           1
  0
ATTRIB
  5
455
100
AcDbEntity
  8
ASHADE
  6
Continuous
 62
           7
100
AcDbText
 10
-182.0
 20
0.0
 30
128.5
 40
0.01
  1
10.0
210
0.0
220
1.0
230
0.0
100
AcDbAttribute
  2
CONEAN
 70
           1
  0
ATTRIB
  5
456
100
AcDbEntity
  8
ASHADE
  6
Continuous
 62
           7
100
AcDbText
 10
-182.0
 20
0.0
 30
128.5
 40
0.01
  1
0.0
210
0.0
220
1.0
230
0.0
100
AcDbAttribute
  2
CONEDE
 70
           1
  0
ATTRIB
  5
457
100
AcDbEntity
  8
ASHADE
  6
Continuous
 62
           7
100
AcDbText
 10
-182.0
 20
0.0
 30
128.5
 40
0.01
  1
0.0
210
0.0
220
1.0
230
0.0
100
AcDbAttribute
  2
BEAMDI
 70
           1
  0
ATTRIB
  5
458
100
AcDbEntity
  8
ASHADE
  6
Continuous
 62
           7
100
AcDbText
 10
-182.0
 20
0.0
 30
128.5
 40
0.01
  1
0,0,0
210
0.0
220
1.0
230
0.0
100
AcDbAttribute
  2
LFXYZ
 70
           1
  0
SEQEND
  5
459
100
AcDbEntity
  8
0
  0
ELLIPSE
  5
45A
100
AcDbEntity
  8
0
370
           0
  6
Continuous
 62
           7
100
AcDbEllipse
 10
577.107782
 20
-66.905776
 30
0.0
 11
0.0000000000000015
 21
-23.949407577514648
 31
0.0
210
0.0
220
0.0
230
1.0
 40
0.988459
 41
1.5707963267948966
 42
7.8539816339744828
  0
ELLIPSE
  5
45B
100
AcDbEntity
  8
0
370
           0
  6
Continuous
 62
           7
100
AcDbEllipse
 10
577.107782
 20
-66.792161
 30
0.0
 11
0.0000000000000014
 21
-23.617242813110352
 31
0.0
210
0.0
220
0.0
230
1.0
 40
0.988459
 41
1.5707963267948966
 42
7.8539816339744828
  0
ELLIPSE
  5
45C
100
AcDbEntity
  8
0
370
           0
  6
Continuous
 62
           7
100
AcDbEllipse
 10
577.08443
 20
-66.711727
 30
0.0
 11
0.0000000000000015
 21
-24.962198257446289
 31
0.0
210
0.0
220
0.0
230
1.0
 40
0.995208
 41
1.5707963267948966
 42
7.8539816339744828
  0
ELLIPSE
  5
45D
100
AcDbEntity
  8
0
370
           0
  6
Continuous
 62
           7
100
AcDbEllipse
 10
577.129044
 20
-66.643249
 30
0.0
 11
0.0000000000000016
 21
-25.485141754150391
 31
0.0
210
0.0
220
0.0
230
1.0
 40
0.995069
 41
1.5707963267948966
 42
7.8539816339744828
  0
ELLIPSE
  5
45E
100
AcDbEntity
  8
0
370
           0
  6
Continuous
 62
           7
100
AcDbEllipse
 10
577.107782
 20
-67.019392
 30
0.0
 11
0.0000000000000016
 21
-26.674217224121094
 31
0.0
210
0.0
220
0.0
230
1.0
 40
0.988459
 41
1.5707963267948966
 42
7.8539816339744828
  0
ELLIPSE
  5
45F
100
AcDbEntity
  8
0
370
           0
  6
Continuous
 62
           7
100
AcDbEllipse
 10
577.107782
 20
-67.019392
 30
0.0
 11
0.0000000000000017
 21
-27.103635787963867
 31
0.0
210
0.0
220
0.0
230
1.0
 40
0.988459
 41
1.5707963267948966
 42
7.8539816339744828
  0
ELLIPSE
  5
460
100
AcDbEntity
  8
0
370
           0
  6
Continuous
 62
           7
100
AcDbEllipse
 10
577.107782
 20
-67.019392
 30
0.0
 11
0.0000000000000017
 21
-28.249130249023437
 31
0.0
210
0.0
220
0.0
230
1.0
 40
0.988459
 41
1.5707963267948966
 42
7.8539816339744828
  0
ELLIPSE
  5
461
100
AcDbEntity
  8
0
370
           0
  6
Continuous
 62
           7
100
AcDbEllipse
 10
577.107782
 20
-67.019392
 30
0.0
 11
0.0000000000000018
 21
-28.780366897583008
 31
0.0
210
0.0
220
0.0
230
1.0
 40
0.988459
 41
1.5707963267948966
 42
7.8539816339744828
  0
INSERT
  5
467
100
AcDbEntity
  8
0
  6
Continuous
 62
           7
100
AcDbBlockReference
  2
*E8
 10
0.0
 20
0.0
 30
0.0
1001
TCAD
1000
TC25ExternalObject
1002
{
1000
TCW25DblLine
1000

1070
           0
1071
        0
1040
1.0
1040
0.0
1000
Continuous
1000
0
1070
          21
1071
        2
1071
      178
1010
549.297397
1020
-38.924691
1030
0.0
1071
      178
1010
557.11434
1020
-46.796061
1030
0.0
1070
           3
1071
-2147483641
1070
           0
1000
$DLINEWID
1070
           5
1040
2.6
1000
$DLINEALG
1070
          18
1070
           0
1000
$DLINECS
1070
          18
1070
           0
1000
$DLINECE
1070
          18
1070
           0
1000
$DLINETS
1070
           5
1040
0.0
1000
$DLINETE
1070
           5
1040
0.0
1000
ExplodeScale
1070
           5
1040
1.0
1002
}
  0
INSERT
  5
46D
100
AcDbEntity
  8
0
  6
Continuous
 62
           7
100
AcDbBlockReference
  2
*E9
 10
0.0
 20
0.0
 30
0.0
1001
TCAD
1000
TC25ExternalObject
1002
{
1000
TCW25DblLine
1000

1070
           0
1071
        0
1040
1.0
1040
0.0
1000
Continuous
1000
0
1070
          21
1071
        2
1071
      178
1010
605.073524
1020
-38.908969
1030
0.0
1071
      178
1010
597.293853
1020
-46.804134
1030
0.0
1070
           3
1071
-2147483641
1070
           0
1000
$DLINEWID
1070
           5
1040
2.6
1000
$DLINEALG
1070
          18
1070
           0
1000
$DLINECS
1070
          18
1070
           0
1000
$DLINECE
1070
          18
1070
           0
1000
$DLINETS
1070
           5
1040
0.0
1000
$DLINETE
1070
           5
1040
0.0
1000
ExplodeScale
1070
           5
1040
1.0
1002
}
  0
INSERT
  5
473
100
AcDbEntity
  8
0
  6
Continuous
 62
           7
100
AcDbBlockReference
  2
*E10
 10
0.0
 20
0.0
 30
0.0
1001
TCAD
1000
TC25ExternalObject
1002
{
1000
TCW25DblLine
1000

1070
           0
1071
        0
1040
1.0
1040
0.0
1000
Continuous
1000
0
1070
          21
1071
        2
1071
      178
1010
605.112911
1020
-95.184626
1030
0.0
1071
      178
1010
597.210328
1020
-87.203694
1030
0.0
1070
           3
1071
-2147483641
1070
           0
1000
$DLINEWID
1070
           5
1040
2.6
1000
$DLINEALG
1070
          18
1070
           0
1000
$DLINECS
1070
          18
1070
           0
1000
$DLINECE
1070
          18
1070
           0
1000
$DLINETS
1070
           5
1040
0.0
1000
$DLINETE
1070
           5
1040
0.0
1000
ExplodeScale
1070
           5
1040
1.0
1002
}
  0
INSERT
  5
479
100
AcDbEntity
  8
0
  6
Continuous
 62
           7
100
AcDbBlockReference
  2
*E11
 10
0.0
 20
0.0
 30
0.0
1001
TCAD
1000
TC25ExternalObject
1002
{
1000
TCW25DblLine
1000

1070
           0
1071
        0
1040
1.0
1040
0.0
1000
Continuous
1000
0
1070
          21
1071
        2
1071
      178
1010
549.321268
1020
-95.247364
1030
0.0
1071
      178
1010
557.116102
1020
-87.342987
1030
0.0
1070
           3
1071
-2147483641
1070
           0
1000
$DLINEWID
1070
           5
1040
2.6
1000
$DLINEALG
1070
          18
1070
           0
1000
$DLINECS
1070
          18
1070
           0
1000
$DLINECE
1070
          18
1070
           0
1000
$DLINETS
1070
           5
1040
0.0
1000
$DLINETE
1070
           5
1040
0.0
1000
ExplodeScale
1070
           5
1040
1.0
1002
}
  0
ELLIPSE
  5
47A
100
AcDbEntity
  8
0
370
           0
  6
Continuous
 62
           7
100
AcDbEllipse
 10
548.624636
 20
-38.203695
 30
0.0
 11
0.0000000000000001
 21
-2.3153049945831325
 31
0.0
210
0.0
220
0.0
230
1.0
 40
0.988459
 41
3.1599955121662981
 42
4.6939862529423566
  0
ELLIPSE
  5
47B
100
AcDbEntity
  8
0
370
           0
  6
Continuous
 62
           7
100
AcDbEllipse
 10
550.29828
 20
-39.896879
 30
0.0
 11
0.0000000000000001
 21
-1.9727489948272672
 31
0.0
210
0.0
220
0.0
230
1.0
 40
0.988459
 41
3.0422423640873575
 42
4.8117393453850079
  0
ELLIPSE
  5
47C
100
AcDbEntity
  8
0
370
           0
  6
Continuous
 62
           7
100
AcDbEllipse
 10
605.988673
 20
-38.028538
 30
0.0
 11
0.0000000000000001
 21
-2.1438577175140403
 31
0.0
210
0.0
220
0.0
230
1.0
 40
0.988459
 41
1.5089284824815139
 42
3.2034605304386972
  0
ELLIPSE
  5
47D
100
AcDbEntity
  8
0
370
           0
  6
Continuous
 62
           7
100
AcDbEllipse
 10
604.285393
 20
-39.751704
 30
0.0
 11
0.0000000000000001
 21
-1.8495241403579732
 31
0.0
210
0.0
220
0.0
230
1.0
 40
0.988459
 41
1.3854483822968338
 42
3.3269406119969362
  0
LINE
  5
47E
100
AcDbEntity
  8
0
370
           0
  6
Continuous
 62
           7
100
AcDbLine
 10
550.104878
 20
-37.933857
 30
0.0
 11
604.6223
 21
-37.933857
 31
0.0
  0
LINE
  5
47F
100
AcDbEntity
  8
0
370
           0
  6
Continuous
 62
           7
100
AcDbLine
 10
548.582349
 20
-35.888785
 30
0.0
 11
606.119745
 21
-35.888785
 31
0.0
  0
ELLIPSE
  5
480
100
AcDbEntity
  8
0
370
           0
  6
Continuous
 62
           7
100
AcDbEllipse
 10
605.801499
 20
-95.906098
 30
0.0
 11
0.0000000000000001
 21
-2.3298077583312926
 31
0.0
210
0.0
220
0.0
230
1.0
 40
0.988459
 41
0.0243854085591237
 42
1.5464109173652263
  0
ELLIPSE
  5
481
100
AcDbEntity
  8
0
370
           0
  6
Continuous
 62
           7
100
AcDbEllipse
 10
603.94848
 20
-94.031445
 30
0.0
 11
0.0000000000000001
 21
-2.1706185340881348
 31
0.0
210
0.0
220
0.0
230
1.0
 40
0.988459
 41
-0.1048769195887591
 42
1.6756732622769188
  0
LINE
  5
482
100
AcDbEntity
  8
0
370
           0
  6
Continuous
 62
           7
100
AcDbLine
 10
606.082254
 20
-39.410828
 30
0.0
 11
606.082254
 21
-94.258727
 31
0.0
  0
LINE
  5
483
100
AcDbEntity
  8
0
370
           0
  6
Continuous
 62
           7
100
AcDbLine
 10
608.103733
 20
-37.895957
 30
0.0
 11
608.103733
 21
-95.962982
 31
0.0
  0
ELLIPSE
  5
484
100
AcDbEntity
  8
0
370
           0
  6
Continuous
 62
           7
100
AcDbEllipse
 10
548.654717
 20
-95.889868
 30
0.0
 11
0.0000000000000001
 21
-2.3527615070343062
 31
0.0
210
0.0
220
0.0
230
1.0
 40
0.988459
 41
-1.4913789471003658
 42
-0.0794173916194199
  0
ELLIPSE
  5
485
100
AcDbEntity
  8
0
370
           0
  6
Continuous
 62
           7
100
AcDbEllipse
 10
550.491692
 20
-94.031445
 30
0.0
 11
0.0000000000000001
 21
-2.1706185340881325
 31
0.0
210
0.0
220
0.0
230
1.0
 40
0.988459
 41
4.6075120727208017
 42
6.3880622585548386
  0
LINE
  5
486
100
AcDbEntity
  8
0
370
           0
  6
Continuous
 62
           7
100
AcDbLine
 10
604.360163
 20
-96.161732
 30
0.0
 11
550.080009
 21
-96.161732
 31
0.0
  0
LINE
  5
487
100
AcDbEntity
  8
0
370
           0
  6
Continuous
 62
           7
100
AcDbLine
 10
548.357916
 20
-94.258703
 30
0.0
 11
548.357916
 21
-39.701182
 31
0.0
  0
LINE
  5
488
100
AcDbEntity
  8
0
370
           0
  6
Continuous
 62
           7
100
AcDbLine
 10
606.164334
 20
-98.206808
 30
0.0
 11
548.250443
 21
-98.206808
 31
0.0
  0
LINE
  5
489
100
AcDbEntity
  8
0
370
           0
  6
Continuous
 62
           7
100
AcDbLine
 10
546.336438
 20
-96.07653
 30
0.0
 11
546.336438
 21
-38.16107
 31
0.0
  0
CIRCLE
  5
48A
100
AcDbEntity
  8
0
370
           0
  6
Continuous
 62
           7
 48
0.20000000298
100
AcDbCircle
 10
567.954506
 20
-72.979664
 30
0.0
 40
4.158733
  0
LWPOLYLINE
  5
48B
100
AcDbEntity
  8
0
370
           0
  6
Continuous
 62
           7
 48
0.20000000298
100
AcDbPolyline
 90
        8
 70
           1
 10
563.008658
 20
-71.009046
 10
565.80819
 20
-68.033803
 10
570.216827
 20
-68.033803
 10
572.900346
 20
-70.916647
 10
572.900341
 20
-75.401073
 10
570.216827
 20
-78.234638
 10
565.80819
 20
-78.234638
 10
563.008658
 20
-75.259394
  0
CIRCLE
  5
48C
100
AcDbEntity
  8
0
370
           0
  6
Continuous
 62
           7
 48
0.20000000298
100
AcDbCircle
 10
567.954506
 20
-72.979664
 30
0.0
 40
1.274519
  0
CIRCLE
  5
48D
100
AcDbEntity
  8
0
370
           0
  6
Continuous
 62
           7
 48
0.20000000298
100
AcDbCircle
 10
567.954506
 20
-72.979664
 30
0.0
 40
1.802442
  0
LWPOLYLINE
  5
48E
100
AcDbEntity
  8
0
370
           0
  6
Continuous
 62
           7
 48
0.20000000298
100
AcDbPolyline
 90
        4
 70
           1
 10
572.958335
 20
-71.124967
 10
577.846226
 20
-71.124967
 10
577.846226
 20
-74.834361
 10
572.958335
 20
-74.834361
  0
LWPOLYLINE
  5
48F
100
AcDbEntity
  8
0
370
           0
  6
Continuous
 62
           7
 48
0.20000000298
100
AcDbPolyline
 90
        4
 70
           1
 10
575.894962
 20
-72.206872
 10
578.773586
 20
-72.206872
 10
578.773586
 20
-73.752454
 10
575.894962
 20
-73.752454
  0
LWPOLYLINE
  5
490
100
AcDbEntity
  8
0
370
           0
  6
Continuous
 62
           7
 48
0.20000000298
100
AcDbPolyline
 90
        4
 70
           1
 10
576.204052
 20
-53.814458
 10
577.595075
 20
-53.814458
 10
577.595075
 20
-66.333664
 10
576.204052
 20
-66.333664
  0
LINE
  5
491
100
AcDbEntity
  8
0
370
           0
  6
Continuous
 62
           7
 48
0.20000000298
100
AcDbLine
 10
576.35861
 20
-66.333664
 30
0.0
 11
575.431262
 21
-69.11571
 31
0.0
  0
LINE
  5
492
100
AcDbEntity
  8
0
370
           0
  6
Continuous
 62
           7
 48
0.20000000298
100
AcDbLine
 10
575.431262
 20
-69.11571
 30
0.0
 11
575.431262
 21
-70.970408
 31
0.0
  0
LINE
  5
493
100
AcDbEntity
  8
0
370
           0
  6
Continuous
 62
           7
 48
0.20000000298
100
AcDbLine
 10
577.440517
 20
-66.333664
 30
0.0
 11
576.513168
 21
-69.11571
 31
0.0
  0
LINE
  5
494
100
AcDbEntity
  8
0
370
           0
  6
Continuous
 62
           7
 48
0.20000000298
100
AcDbLine
 10
576.513168
 20
-69.11571
 30
0.0
 11
576.513168
 21
-71.124966
 31
0.0
  0
LWPOLYLINE
  5
495
100
AcDbEntity
  8
0
370
           0
  6
Continuous
 62
           7
 48
0.20000000298
100
AcDbPolyline
 90
        4
 70
           1
 10
545.15293
 20
-20.602426
 10
607.203911
 20
-20.602426
 10
607.203911
 20
-31.053117
 10
545.15293
 20
-31.053117
  0
MTEXT
  5
496
100
AcDbEntity
  8
0
  6
Continuous
 62
           7
100
AcDbMText
 10
545.806099
 20
-22.56193
 30
0.0
 40
2.721533983946
 41
31.821013
 71
           1
 72
           1
  1
{ボールバルブ付\Pカプラ-バルブセット}
 73
           1
 44
1.0
1001
TCAD
1000
TCW_REFPOINT
1002
{
1010
545.806099
1020
-22.56193
1030
0.0
1002
}
1000
TCW40_TEXT
1002
{
1000
ＭＳ ゴシック
1070
           0
1070
         257
1002
}
  0
TEXT
  5
497
100
AcDbEntity
  8
0
  6
Continuous
 62
           7
100
AcDbText
 10
580.995543
 20
-29.417026996927
 30
0.0
 40
3.787879019976
  1
取付位置図
 41
1.07
  7
_TCW_TXTSTY_1
 72
           5
 11
605.995543
 21
-29.417026996927
 31
0.0
100
AcDbText
1001
TCAD
1000
TCW40_TEXT
1002
{
1000
ＭＳ ゴシック
1070
           0
1070
        1025
1002
}
  0
LINE
  5
498
100
AcDbEntity
  8
0
  6
Continuous
 62
           7
100
AcDbLine
 10
542.111787
 20
-35.951879
 30
0.0
 11
528.701591
 21
-35.951879
 31
0.0
1001
ACAD
1000
TCW40_DEV_WIDTH
1002
{
1040
-3.0
1002
}
  0
LINE
  5
499
100
AcDbEntity
  8
0
  6
Continuous
 62
           7
100
AcDbLine
 10
542.111787
 20
-98.329443
 30
0.0
 11
528.701591
 21
-98.329443
 31
0.0
1001
ACAD
1000
TCW40_DEV_WIDTH
1002
{
1040
-3.0
1002
}
  0
LWPOLYLINE
  5
49A
100
AcDbEntity
  8
0
  6
Continuous
 62
           7
100
AcDbPolyline
 90
        4
 70
           0
 10
530.701591
 20
-38.951879
 10
530.701591
 20
-38.951879
 10
530.701591
 20
-38.951879
 10
530.701591
 20
-65.36164
1001
ACAD
1000
TCW40_DEV_WIDTH
1002
{
1040
-3.0
1002
}
  0
LWPOLYLINE
  5
49B
100
AcDbEntity
  8
0
  6
Continuous
 62
           7
100
AcDbPolyline
 90
        4
 70
           0
 10
530.701591
 20
-95.329443
 10
530.701591
 20
-95.329443
 10
530.701591
 20
-95.329443
 10
530.701591
 20
-68.919682
1001
ACAD
1000
TCW40_DEV_WIDTH
1002
{
1040
-3.0
1002
}
  0
SOLID
  5
49C
100
AcDbEntity
  8
0
  6
Continuous
 62
           7
100
AcDbTrace
 10
530.701591
 20
-35.951879
 30
0.0
 11
530.311591
 21
-38.951879
 31
0.0
 12
530.701591
 22
-35.951879
 32
0.0
 13
531.091591
 23
-38.951879
 33
0.0
  0
SOLID
  5
49D
100
AcDbEntity
  8
0
  6
Continuous
 62
           7
100
AcDbTrace
 10
530.701591
 20
-98.329443
 30
0.0
 11
531.091591
 21
-95.329443
 31
0.0
 12
530.701591
 22
-98.329443
 32
0.0
 13
530.311591
 23
-95.329443
 33
0.0
  0
TEXT
  5
49E
100
AcDbEntity
  8
0
  6
Continuous
 62
           7
100
AcDbText
 10
526.995297
 20
-68.252549014403
 30
0.0
 40
2.409090906382
  1
300φ
 72
           5
 11
534.407885
 21
-68.252549014403
 31
0.0
100
AcDbText
1001
TCAD
1000
TCW40_TEXT
1002
{
1000
ＭＳ ゴシック
1070
           0
1070
        1025
1002
}
  0
MTEXT
  5
49F
100
AcDbEntity
  8
0
  6
Continuous
 62
           7
100
AcDbMText
 10
535.580197
 20
-68.834892
 30
0.0
 40
3.278211116791
 41
8.069442
 71
           1
 72
           1
  1
{　グ\P中ラ\P央ン\P方ド\P向側\P　}
 11
0.999988794564
 21
-0.004733999027
 31
0.0
 73
           1
 44
1.0
1001
TCAD
1000
TCW_REFPOINT
1002
{
1010
535.580197
1020
-68.834892
1030
0.0
1002
}
1000
TCW40_TEXT
1002
{
1000
ＭＳ ゴシック
1070
           0
1070
         257
1002
}
  0
MTEXT
  5
4A0
100
AcDbEntity
  8
0
  6
Continuous
 62
           7
100
AcDbMText
 10
610.367945
 20
-68.834891
 30
0.0
 40
3.278211116791
 41
8.069442
 71
           1
 72
           1
  1
{フ\Pェカ\Pンベ\Pス側\P側\P　}
 11
0.999988794564
 21
-0.004733999027
 31
0.0
 73
           1
 44
1.0
1001
TCAD
1000
TCW_REFPOINT
1002
{
1010
610.367945
1020
-68.834891
1030
0.0
1002
}
1000
TCW40_TEXT
1002
{
1000
ＭＳ ゴシック
1070
           0
1070
         257
1002
}
  0
MTEXT
  5
4A1
100
AcDbEntity
  8
0
  6
Continuous
 62
           7
100
AcDbMText
 10
545.071298
 20
-109.923178
 30
0.0
 40
3.298828989267
 41
60.901458
 71
           1
 72
           1
  1
{　　　　施工上の注意\P取付位置は、ボールバルブの\Pハンドルが中央になるようにする}
 73
           1
 44
1.0
1001
TCAD
1000
TCW_REFPOINT
1002
{
1010
545.071298
1020
-109.923178
1030
0.0
1002
}
1000
TCW40_TEXT
1002
{
1000
ＭＳ ゴシック
1070
           0
1070
         257
1002
}
  0
LINE
  5
4A2
100
AcDbEntity
  8
0
370
           0
  6
Continuous
 62
           7
 48
0.20000000298
100
AcDbLine
 10
560.09416
 20
-111.5561
 30
0.0
 11
543.111787
 21
-111.5561
 31
0.0
  0
LINE
  5
4A3
100
AcDbEntity
  8
0
370
           0
  6
Continuous
 62
           7
 48
0.20000000298
100
AcDbLine
 10
543.111787
 20
-111.5561
 30
0.0
 11
543.111787
 21
-124.29288
 31
0.0
  0
LINE
  5
4A4
100
AcDbEntity
  8
0
370
           0
  6
Continuous
 62
           7
 48
0.20000000298
100
AcDbLine
 10
543.111787
 20
-124.29288
 30
0.0
 11
609.408366
 21
-124.29288
 31
0.0
  0
LINE
  5
4A5
100
AcDbEntity
  8
0
370
           0
  6
Continuous
 62
           7
 48
0.20000000298
100
AcDbLine
 10
587.85381
 20
-111.5561
 30
0.0
 11
609.408361
 21
-111.5561
 31
0.0
  0
LINE
  5
4A6
100
AcDbEntity
  8
0
370
           0
  6
Continuous
 62
           7
 48
0.20000000298
100
AcDbLine
 10
609.408361
 20
-111.5561
 30
0.0
 11
609.408361
 21
-124.619467
 31
0.0
  0
MTEXT
  5
4A7
100
AcDbEntity
  8
0
  6
Continuous
 62
           7
100
AcDbMText
 10
580.015791
 20
-58.649474
 30
0.0
 40
2.474121063948
 41
18.270432
 71
           1
 72
           1
  1
{ボールバルブ\Pのハンドル}
 73
           1
 44
1.0
1001
TCAD
1000
TCW_REFPOINT
1002
{
1010
580.015791
1020
-58.649474
1030
0.0
1002
}
1000
TCW40_TEXT
1002
{
1000
ＭＳ ゴシック
1070
           0
1070
         257
1002
}
  0
MTEXT
  5
4A8
100
AcDbEntity
  8
0
  6
Continuous
 62
           7
100
AcDbMText
 10
570.177441
 20
-79.6325
 30
0.0
 40
1.917446061969
 41
16.519535
 71
           1
 72
           1
  1
{ボールバルブ付\Pカプラーバルブ}
 73
           1
 44
1.0
1001
TCAD
1000
TCW_REFPOINT
1002
{
1010
570.177441
1020
-79.6325
1030
0.0
1002
}
1000
TCW40_TEXT
1002
{
1000
ＭＳ ゴシック
1070
           0
1070
         257
1002
}
  0
SOLID
  5
4A9
100
AcDbEntity
  8
0
  6
Continuous
 62
           7
 48
0.20000000298
100
AcDbTrace
 10
573.89234
 20
-79.101804
 30
0.0
 11
573.402464
 21
-79.59168
 31
0.0
 12
573.89234
 22
-79.101804
 32
0.0
 13
571.606252
 23
-77.795467
 33
0.0
  0
SOLID
  5
4AA
100
AcDbEntity
  8
0
  6
Continuous
 62
           7
 48
0.20000000298
100
AcDbTrace
 10
580.097439
 20
-61.792846
 30
0.0
 11
579.934146
 21
-61.139678
 31
0.0
 12
580.097439
 22
-61.792846
 32
0.0
 13
577.974642
 23
-61.956138
 33
0.0
  0
LWPOLYLINE
  5
4AB
100
AcDbEntity
  8
0
370
           0
  6
Continuous
 62
           7
 48
0.20000000298
100
AcDbPolyline
 90
        3
 70
           0
 10
578.954394
 20
-65.385271
 10
602.46845
 20
-104.412072
 10
587.445581
 20
-111.433631
  0
SOLID
  5
4AC
100
AcDbEntity
  8
0
  6
Continuous
 62
           7
 48
0.20000000298
100
AcDbTrace
 10
580.750607
 20
-68.324528
 30
0.0
 11
578.954394
 21
-65.385271
 31
0.0
 12
580.750607
 22
-68.324528
 32
0.0
 13
581.077191
 23
-68.161236
 33
0.0
  0
TEXT
  5
4AD
100
AcDbEntity
  8
0
  6
Continuous
 62
           7
100
AcDbText
 10
466.243471
 20
-52.711012996927
 30
0.0
 40
3.787879019976
  1
300角　改良桝
 41
1.07
  7
_TCW_TXTSTY_1
 72
           5
 11
498.743471
 21
-52.711012996927
 31
0.0
100
AcDbText
1001
TCAD
1000
TCW40_TEXT
1002
{
1000
ＭＳ ゴシック
1070
           0
1070
        1025
1002
}
  0
LINE
  5
4AE
100
AcDbEntity
  8
0
370
           0
  6
Continuous
 62
           7
 48
0.20000000298
100
AcDbLine
 10
453.772321
 20
-83.584723
 30
0.0
 11
478.058245
 21
-83.584723
 31
0.0
  0
TEXT
  5
4AF
100
AcDbEntity
  8
0
  6
Continuous
 62
           7
100
AcDbText
 10
467.80724
 20
-83.029832996927
 30
0.0
 40
3.787879019976
  1
砂利
 41
1.07
  7
_TCW_TXTSTY_1
 72
           5
 11
477.80724
 21
-83.029832996927
 31
0.0
100
AcDbText
1001
TCAD
1000
TCW40_TEXT
1002
{
1000
ＭＳ ゴシック
1070
           0
1070
        1025
1002
}
  0
LINE
  5
4B0
100
AcDbEntity
  8
0
370
           0
  6
Continuous
 62
           7
 48
0.20000000298
100
AcDbLine
 10
461.320649
 20
-53.391411
 30
0.0
 11
462.96159
 21
-52.735035
 31
0.0
  0
LINE
  5
4B1
100
AcDbEntity
  8
0
370
           0
  6
Continuous
 62
           7
 48
0.20000000298
100
AcDbLine
 10
461.09303
 20
-53.246555
 30
0.0
 11
499.491049
 21
-53.246555
 31
0.0
  0
TEXT
  5
4B2
100
AcDbEntity
  8
0
  6
Continuous
 62
           7
100
AcDbText
 10
383.827239
 20
-11.266888985753
 30
0.0
 40
4.877469092607
  1
GL
 41
1.07
  7
_TCW_TXTSTY_1
 72
           5
 11
390.265498
 21
-11.266888985753
 31
0.0
100
AcDbText
1001
TCAD
1000
TCW40_TEXT
1002
{
1000
ＭＳ ゴシック
1070
           0
1070
        1025
1002
}
  0
LINE
  5
4B3
100
AcDbEntity
  8
0
370
           0
  6
Continuous
 62
           7
100
AcDbLine
 10
447.342713
 20
-12.822639
 30
0.0
 11
449.214357
 21
-11.849585
 31
0.0
  0
ELLIPSE
  5
4B4
102
{ACAD_REACTORS
330
4B5
102
}
100
AcDbEntity
  8
0
370
           0
  6
Continuous
 62
           7
100
AcDbEllipse
 10
405.526063
 20
-13.110815
 30
0.0
 11
0.9823445081710815
 21
0.0
 31
0.0
210
0.0
220
0.0
230
1.0
 40
0.84833
 41
0.0
 42
6.2831853071795862
  0
HATCH
  5
4B5
100
AcDbEntity
  8
0
  6
Continuous
 62
           7
100
AcDbHatch
 10
0.0
 20
0.0
 30
0.0
210
0.0
220
0.0
230
1.0
  2
SOLID
 70
           1
 71
           1
 91
        1
 92
        3
 72
           0
 73
           1
 93
      121
 10
406.5084075081711
 20
-13.110815000000001
 10
406.50708339461221
 20
-13.067560832918526
 10
406.50311462351146
 20
-13.024423271424268
 10
406.49651189397423
 20
-12.981518606756397
 10
406.48729300579191
 20
-12.938962502305412
 10
406.4754828114572
 20
-12.896869681805095
 10
406.46111314916595
 20
-12.855353620057603
 10
406.44422275698719
 20
-12.814526237025463
 10
406.42485716843214
 20
-12.774497596115149
 10
406.40306858970365
 20
-12.735375607465581
 10
406.37891575895782
 20
-12.697265737041487
 10
406.35246378795625
 20
-12.660270722315792
 10
406.32378398653606
 20
-12.624490295307567
 10
406.29295367037133
 20
-12.590020913722128
 10
406.26005595254378
 20
-12.556955500918127
 10
406.22517951948436
 20
-12.525383195402593
 10
406.18841839189059
 20
-12.49538911052929
 10
406.14987167126316
 20
-12.467054105048152
 10
406.10964327274593
 20
-12.440454565124393
 10
406.06784164498896
 20
-12.415662198414912
 10
406.02457947779027
 20
-12.392743840757124
 10
405.97997339830403
 20
-12.371761275991366
 10
405.93414365663426
 20
-12.352771069402575
 10
405.88721380166186
 20
-12.335824415230293
 10
405.83931034797882
 20
-12.320966998658038
 10
405.79056243482705
 20
-12.308238872654135
 10
405.74110147796182
 20
-12.297674349995985
 10
405.69106081537831
 20
-12.289301910768893
 10
405.64057534785582
 20
-12.283144125588789
 10
405.58978117528898
 20
-12.279217594755835
 10
405.53881522978674
 20
-12.277532903502953
 10
405.4878149065276
 20
-12.278094593459917
 10
405.4369176933663
 20
-12.280901150409903
 10
405.386260800191
 20
-12.285945008371572
 10
405.33598078902969
 20
-12.293212569995596
 10
405.28621320590304
 20
-12.302684243220726
 10
405.23709221541645
 20
-12.314334494090518
 10
405.18875023907572
 20
-12.328131915588365
 10
405.14131759830229
 20
-12.344039312305258
 10
405.0949221631098
 20
-12.362013800712038
 10
405.04968900738891
 20
-12.382006924765811
 10
405.00574007173026
 20
-12.403964786538863
 10
404.96319383469432
 20
-12.427828191517952
 10
404.92216499341419
 20
-12.453532808182247
 10
404.88276415439196
 20
-12.48100934142974
 10
404.84509753532387
 20
-12.51018371938458
 10
404.80926667875542
 20
-12.540977293081761
 10
404.77536817834113
 20
-12.573307048490831
 10
404.74349341844493
 20
-12.607085830307028
 10
404.71372832778422
 20
-12.642222576906587
 10
404.68615314778089
 20
-12.678622565832766
 10
404.66084221624504
 20
-12.716187669150857
 10
404.63786376697323
 20
-12.754816617983733
 10
404.61727974580214
 20
-12.794405275514849
 10
404.59914564361361
 20
-12.834846917722682
 10
404.58351034674109
 20
-12.876032521089829
 10
404.57041600518068
 20
-12.917851056511127
 10
404.55989791896212
 20
-12.960189788608501
 10
404.55198444298634
 20
-13.002934579645602
 10
404.54669691058552
 20
-13.045970197222974
 10
404.54404957601207
 20
-13.089180624924227
 10
404.54404957601207
 20
-13.132449375075776
 10
404.54669691058552
 20
-13.175659802777027
 10
404.55198444298634
 20
-13.218695420354399
 10
404.55989791896212
 20
-13.261440211391502
 10
404.57041600518068
 20
-13.303778943488874
 10
404.58351034674109
 20
-13.345597478910172
 10
404.59914564361361
 20
-13.386783082277319
 10
404.61727974580214
 20
-13.427224724485152
 10
404.63786376697323
 20
-13.466813382016268
 10
404.66084221624504
 20
-13.505442330849144
 10
404.68615314778089
 20
-13.543007434167235
 10
404.71372832778422
 20
-13.579407423093414
 10
404.74349341844493
 20
-13.614544169692973
 10
404.77536817834113
 20
-13.64832295150917
 10
404.80926667875542
 20
-13.680652706918238
 10
404.84509753532387
 20
-13.711446280615421
 10
404.88276415439196
 20
-13.740620658570261
 10
404.92216499341419
 20
-13.768097191817754
 10
404.96319383469432
 20
-13.79380180848205
 10
405.00574007173026
 20
-13.817665213461138
 10
405.04968900738891
 20
-13.83962307523419
 10
405.0949221631098
 20
-13.859616199287961
 10
405.14131759830229
 20
-13.877590687694743
 10
405.18875023907572
 20
-13.893498084411636
 10
405.23709221541645
 20
-13.907295505909481
 10
405.28621320590304
 20
-13.918945756779273
 10
405.33598078902969
 20
-13.928417430004405
 10
405.386260800191
 20
-13.935684991628429
 10
405.4369176933663
 20
-13.940728849590096
 10
405.4878149065276
 20
-13.943535406540084
 10
405.53881522978674
 20
-13.944097096497046
 10
405.58978117528898
 20
-13.942412405244166
 10
405.64057534785582
 20
-13.938485874411212
 10
405.69106081537831
 20
-13.932328089231106
 10
405.74110147796182
 20
-13.923955650004014
 10
405.79056243482705
 20
-13.913391127345866
 10
405.83931034797882
 20
-13.900663001341961
 10
405.88721380166186
 20
-13.885805584769708
 10
405.93414365663426
 20
-13.868858930597424
 10
405.97997339830403
 20
-13.849868724008635
 10
406.02457947779027
 20
-13.828886159242876
 10
406.06784164498896
 20
-13.805967801585089
 10
406.10964327274587
 20
-13.781175434875607
 10
406.14987167126316
 20
-13.754575894951847
 10
406.18841839189059
 20
-13.726240889470709
 10
406.22517951948436
 20
-13.696246804597406
 10
406.26005595254378
 20
-13.664674499081874
 10
406.29295367037133
 20
-13.631609086277871
 10
406.32378398653606
 20
-13.597139704692434
 10
406.35246378795625
 20
-13.561359277684208
 10
406.37891575895782
 20
-13.524364262958512
 10
406.40306858970365
 20
-13.486254392534418
 10
406.42485716843214
 20
-13.447132403884851
 10
406.44422275698719
 20
-13.407103762974536
 10
406.46111314916595
 20
-13.366276379942398
 10
406.47548281145714
 20
-13.324760318194906
 10
406.48729300579191
 20
-13.282667497694588
 10
406.49651189397423
 20
-13.240111393243604
 10
406.50311462351146
 20
-13.197206728575733
 10
406.50708339461221
 20
-13.154069167081474
 97
        1
330
4B4
 75
           0
 76
           0
 98
        0
  0
ELLIPSE
  5
4B6
102
{ACAD_REACTORS
330
4B7
102
}
100
AcDbEntity
  8
0
370
           0
  6
Continuous
 62
           7
100
AcDbEllipse
 10
411.32363
 20
-13.110815
 30
0.0
 11
0.9823445081710815
 21
0.0
 31
0.0
210
0.0
220
0.0
230
1.0
 40
0.84833
 41
0.0
 42
6.2831853071795862
  0
HATCH
  5
4B7
100
AcDbEntity
  8
0
  6
Continuous
 62
           7
100
AcDbHatch
 10
0.0
 20
0.0
 30
0.0
210
0.0
220
0.0
230
1.0
  2
SOLID
 70
           1
 71
           1
 91
        1
 92
        3
 72
           0
 73
           1
 93
      121
 10
412.30597450817106
 20
-13.110815000000001
 10
412.30465039461217
 20
-13.067560832918526
 10
412.30068162351142
 20
-13.024423271424268
 10
412.29407889397419
 20
-12.981518606756397
 10
412.28486000579187
 20
-12.938962502305412
 10
412.27304981145716
 20
-12.896869681805095
 10
412.25868014916591
 20
-12.855353620057603
 10
412.24178975698715
 20
-12.814526237025463
 10
412.2224241684321
 20
-12.774497596115149
 10
412.20063558970361
 20
-12.735375607465581
 10
412.17648275895777
 20
-12.697265737041487
 10
412.15003078795621
 20
-12.660270722315792
 10
412.12135098653602
 20
-12.624490295307567
 10
412.09052067037129
 20
-12.590020913722128
 10
412.05762295254374
 20
-12.556955500918127
 10
412.02274651948431
 20
-12.525383195402593
 10
411.98598539189055
 20
-12.49538911052929
 10
411.94743867126311
 20
-12.467054105048152
 10
411.90721027274589
 20
-12.440454565124393
 10
411.86540864498892
 20
-12.415662198414912
 10
411.82214647779023
 20
-12.392743840757124
 10
411.77754039830398
 20
-12.371761275991366
 10
411.73171065663422
 20
-12.352771069402575
 10
411.68478080166182
 20
-12.335824415230293
 10
411.63687734797878
 20
-12.320966998658038
 10
411.58812943482701
 20
-12.308238872654135
 10
411.53866847796178
 20
-12.297674349995985
 10
411.48862781537827
 20
-12.289301910768893
 10
411.43814234785577
 20
-12.283144125588789
 10
411.38734817528893
 20
-12.279217594755835
 10
411.33638222978669
 20
-12.277532903502953
 10
411.28538190652756
 20
-12.278094593459917
 10
411.23448469336626
 20
-12.280901150409903
 10
411.18382780019095
 20
-12.285945008371572
 10
411.13354778902965
 20
-12.293212569995596
 10
411.083780205903
 20
-12.302684243220726
 10
411.03465921541641
 20
-12.314334494090518
 10
410.98631723907567
 20
-12.328131915588365
 10
410.93888459830225
 20
-12.344039312305258
 10
410.89248916310976
 20
-12.362013800712038
 10
410.84725600738886
 20
-12.382006924765811
 10
410.80330707173022
 20
-12.403964786538863
 10
410.76076083469428
 20
-12.427828191517952
 10
410.71973199341414
 20
-12.453532808182247
 10
410.68033115439192
 20
-12.48100934142974
 10
410.64266453532383
 20
-12.51018371938458
 10
410.60683367875538
 20
-12.540977293081761
 10
410.57293517834108
 20
-12.573307048490831
 10
410.54106041844489
 20
-12.607085830307028
 10
410.51129532778418
 20
-12.642222576906587
 10
410.48372014778084
 20
-12.678622565832766
 10
410.458409216245
 20
-12.716187669150857
 10
410.43543076697318
 20
-12.754816617983733
 10
410.41484674580209
 20
-12.794405275514849
 10
410.39671264361357
 20
-12.834846917722682
 10
410.38107734674105
 20
-12.876032521089829
 10
410.36798300518063
 20
-12.917851056511127
 10
410.35746491896208
 20
-12.960189788608501
 10
410.3495514429863
 20
-13.002934579645602
 10
410.34426391058548
 20
-13.045970197222974
 10
410.34161657601203
 20
-13.089180624924227
 10
410.34161657601203
 20
-13.132449375075776
 10
410.34426391058548
 20
-13.175659802777027
 10
410.3495514429863
 20
-13.218695420354399
 10
410.35746491896208
 20
-13.261440211391502
 10
410.36798300518063
 20
-13.303778943488874
 10
410.38107734674105
 20
-13.345597478910172
 10
410.39671264361357
 20
-13.386783082277319
 10
410.41484674580209
 20
-13.427224724485152
 10
410.43543076697318
 20
-13.466813382016268
 10
410.458409216245
 20
-13.505442330849144
 10
410.48372014778084
 20
-13.543007434167235
 10
410.51129532778418
 20
-13.579407423093414
 10
410.54106041844489
 20
-13.614544169692973
 10
410.57293517834108
 20
-13.64832295150917
 10
410.60683367875538
 20
-13.680652706918238
 10
410.64266453532383
 20
-13.711446280615421
 10
410.68033115439192
 20
-13.740620658570261
 10
410.71973199341414
 20
-13.768097191817754
 10
410.76076083469428
 20
-13.79380180848205
 10
410.80330707173022
 20
-13.817665213461138
 10
410.84725600738886
 20
-13.83962307523419
 10
410.89248916310976
 20
-13.859616199287961
 10
410.93888459830225
 20
-13.877590687694743
 10
410.98631723907567
 20
-13.893498084411636
 10
411.03465921541641
 20
-13.907295505909481
 10
411.083780205903
 20
-13.918945756779273
 10
411.13354778902965
 20
-13.928417430004405
 10
411.18382780019095
 20
-13.935684991628429
 10
411.23448469336626
 20
-13.940728849590096
 10
411.28538190652756
 20
-13.943535406540084
 10
411.33638222978669
 20
-13.944097096497046
 10
411.38734817528893
 20
-13.942412405244166
 10
411.43814234785577
 20
-13.938485874411212
 10
411.48862781537827
 20
-13.932328089231106
 10
411.53866847796178
 20
-13.923955650004014
 10
411.58812943482701
 20
-13.913391127345866
 10
411.63687734797878
 20
-13.900663001341961
 10
411.68478080166182
 20
-13.885805584769708
 10
411.73171065663422
 20
-13.868858930597424
 10
411.77754039830398
 20
-13.849868724008635
 10
411.82214647779023
 20
-13.828886159242876
 10
411.86540864498892
 20
-13.805967801585089
 10
411.90721027274583
 20
-13.781175434875607
 10
411.94743867126311
 20
-13.754575894951847
 10
411.98598539189055
 20
-13.726240889470709
 10
412.02274651948431
 20
-13.696246804597406
 10
412.05762295254374
 20
-13.664674499081874
 10
412.09052067037129
 20
-13.631609086277871
 10
412.12135098653602
 20
-13.597139704692434
 10
412.15003078795621
 20
-13.561359277684208
 10
412.17648275895777
 20
-13.524364262958512
 10
412.20063558970361
 20
-13.486254392534418
 10
412.2224241684321
 20
-13.447132403884851
 10
412.24178975698715
 20
-13.407103762974536
 10
412.25868014916591
 20
-13.366276379942398
 10
412.2730498114571
 20
-13.324760318194906
 10
412.28486000579187
 20
-13.282667497694588
 10
412.29407889397419
 20
-13.240111393243604
 10
412.30068162351142
 20
-13.197206728575733
 10
412.30465039461217
 20
-13.154069167081474
 97
        1
330
4B6
 75
           0
 76
           0
 98
        0
  0
ELLIPSE
  5
4B8
102
{ACAD_REACTORS
330
4B9
102
}
100
AcDbEntity
  8
0
370
           0
  6
Continuous
 62
           7
100
AcDbEllipse
 10
423.050548
 20
-13.110815
 30
0.0
 11
0.9823445081710815
 21
0.0
 31
0.0
210
0.0
220
0.0
230
1.0
 40
0.84833
 41
0.0
 42
6.2831853071795862
  0
HATCH
  5
4B9
100
AcDbEntity
  8
0
  6
Continuous
 62
           7
100
AcDbHatch
 10
0.0
 20
0.0
 30
0.0
210
0.0
220
0.0
230
1.0
  2
SOLID
 70
           1
 71
           1
 91
        1
 92
        3
 72
           0
 73
           1
 93
      121
 10
424.03289250817107
 20
-13.110815000000001
 10
424.03156839461218
 20
-13.067560832918526
 10
424.02759962351143
 20
-13.024423271424268
 10
424.0209968939742
 20
-12.981518606756397
 10
424.01177800579188
 20
-12.938962502305412
 10
423.99996781145717
 20
-12.896869681805095
 10
423.98559814916592
 20
-12.855353620057603
 10
423.96870775698716
 20
-12.814526237025463
 10
423.94934216843211
 20
-12.774497596115149
 10
423.92755358970362
 20
-12.735375607465581
 10
423.90340075895779
 20
-12.697265737041487
 10
423.87694878795622
 20
-12.660270722315792
 10
423.84826898653603
 20
-12.624490295307567
 10
423.8174386703713
 20
-12.590020913722128
 10
423.78454095254375
 20
-12.556955500918127
 10
423.74966451948433
 20
-12.525383195402593
 10
423.71290339189056
 20
-12.49538911052929
 10
423.67435667126313
 20
-12.467054105048152
 10
423.6341282727459
 20
-12.440454565124393
 10
423.59232664498893
 20
-12.415662198414912
 10
423.54906447779024
 20
-12.392743840757124
 10
423.504458398304
 20
-12.371761275991366
 10
423.45862865663423
 20
-12.352771069402575
 10
423.41169880166183
 20
-12.335824415230293
 10
423.36379534797879
 20
-12.320966998658038
 10
423.31504743482702
 20
-12.308238872654135
 10
423.26558647796179
 20
-12.297674349995985
 10
423.21554581537828
 20
-12.289301910768893
 10
423.16506034785579
 20
-12.283144125588789
 10
423.11426617528895
 20
-12.279217594755835
 10
423.06330022978671
 20
-12.277532903502953
 10
423.01229990652757
 20
-12.278094593459917
 10
422.96140269336627
 20
-12.280901150409903
 10
422.91074580019097
 20
-12.285945008371572
 10
422.86046578902966
 20
-12.293212569995596
 10
422.81069820590301
 20
-12.302684243220726
 10
422.76157721541642
 20
-12.314334494090518
 10
422.71323523907569
 20
-12.328131915588365
 10
422.66580259830226
 20
-12.344039312305258
 10
422.61940716310977
 20
-12.362013800712038
 10
422.57417400738888
 20
-12.382006924765811
 10
422.53022507173023
 20
-12.403964786538863
 10
422.48767883469429
 20
-12.427828191517952
 10
422.44664999341416
 20
-12.453532808182247
 10
422.40724915439193
 20
-12.48100934142974
 10
422.36958253532384
 20
-12.51018371938458
 10
422.33375167875539
 20
-12.540977293081761
 10
422.2998531783411
 20
-12.573307048490831
 10
422.2679784184449
 20
-12.607085830307028
 10
422.23821332778419
 20
-12.642222576906587
 10
422.21063814778086
 20
-12.678622565832766
 10
422.18532721624501
 20
-12.716187669150857
 10
422.1623487669732
 20
-12.754816617983733
 10
422.14176474580211
 20
-12.794405275514849
 10
422.12363064361358
 20
-12.834846917722682
 10
422.10799534674106
 20
-12.876032521089829
 10
422.09490100518065
 20
-12.917851056511127
 10
422.08438291896209
 20
-12.960189788608501
 10
422.07646944298631
 20
-13.002934579645602
 10
422.07118191058549
 20
-13.045970197222974
 10
422.06853457601204
 20
-13.089180624924227
 10
422.06853457601204
 20
-13.132449375075776
 10
422.07118191058549
 20
-13.175659802777027
 10
422.07646944298631
 20
-13.218695420354399
 10
422.08438291896209
 20
-13.261440211391502
 10
422.09490100518065
 20
-13.303778943488874
 10
422.10799534674106
 20
-13.345597478910172
 10
422.12363064361358
 20
-13.386783082277319
 10
422.14176474580211
 20
-13.427224724485152
 10
422.1623487669732
 20
-13.466813382016268
 10
422.18532721624501
 20
-13.505442330849144
 10
422.21063814778086
 20
-13.543007434167235
 10
422.23821332778419
 20
-13.579407423093414
 10
422.2679784184449
 20
-13.614544169692973
 10
422.2998531783411
 20
-13.64832295150917
 10
422.33375167875539
 20
-13.680652706918238
 10
422.36958253532384
 20
-13.711446280615421
 10
422.40724915439193
 20
-13.740620658570261
 10
422.44664999341416
 20
-13.768097191817754
 10
422.48767883469429
 20
-13.79380180848205
 10
422.53022507173023
 20
-13.817665213461138
 10
422.57417400738888
 20
-13.83962307523419
 10
422.61940716310977
 20
-13.859616199287961
 10
422.66580259830226
 20
-13.877590687694743
 10
422.71323523907569
 20
-13.893498084411636
 10
422.76157721541642
 20
-13.907295505909481
 10
422.81069820590301
 20
-13.918945756779273
 10
422.86046578902966
 20
-13.928417430004405
 10
422.91074580019097
 20
-13.935684991628429
 10
422.96140269336627
 20
-13.940728849590096
 10
423.01229990652757
 20
-13.943535406540084
 10
423.06330022978671
 20
-13.944097096497046
 10
423.11426617528895
 20
-13.942412405244166
 10
423.16506034785579
 20
-13.938485874411212
 10
423.21554581537828
 20
-13.932328089231106
 10
423.26558647796179
 20
-13.923955650004014
 10
423.31504743482702
 20
-13.913391127345866
 10
423.36379534797879
 20
-13.900663001341961
 10
423.41169880166183
 20
-13.885805584769708
 10
423.45862865663423
 20
-13.868858930597424
 10
423.504458398304
 20
-13.849868724008635
 10
423.54906447779024
 20
-13.828886159242876
 10
423.59232664498893
 20
-13.805967801585089
 10
423.63412827274584
 20
-13.781175434875607
 10
423.67435667126313
 20
-13.754575894951847
 10
423.71290339189056
 20
-13.726240889470709
 10
423.74966451948433
 20
-13.696246804597406
 10
423.78454095254375
 20
-13.664674499081874
 10
423.8174386703713
 20
-13.631609086277871
 10
423.84826898653603
 20
-13.597139704692434
 10
423.87694878795622
 20
-13.561359277684208
 10
423.90340075895779
 20
-13.524364262958512
 10
423.92755358970362
 20
-13.486254392534418
 10
423.94934216843211
 20
-13.447132403884851
 10
423.96870775698716
 20
-13.407103762974536
 10
423.98559814916592
 20
-13.366276379942398
 10
423.99996781145711
 20
-13.324760318194906
 10
424.01177800579188
 20
-13.282667497694588
 10
424.0209968939742
 20
-13.240111393243604
 10
424.02759962351143
 20
-13.197206728575733
 10
424.03156839461218
 20
-13.154069167081474
 97
        1
330
4B8
 75
           0
 76
           0
 98
        0
  0
ELLIPSE
  5
4BA
102
{ACAD_REACTORS
330
4BB
102
}
100
AcDbEntity
  8
0
370
           0
  6
Continuous
 62
           7
100
AcDbEllipse
 10
441.23383
 20
-13.110815
 30
0.0
 11
0.9823445081710815
 21
0.0
 31
0.0
210
0.0
220
0.0
230
1.0
 40
0.84833
 41
0.0
 42
6.2831853071795862
  0
HATCH
  5
4BB
100
AcDbEntity
  8
0
  6
Continuous
 62
           7
100
AcDbHatch
 10
0.0
 20
0.0
 30
0.0
210
0.0
220
0.0
230
1.0
  2
SOLID
 70
           1
 71
           1
 91
        1
 92
        3
 72
           0
 73
           1
 93
      121
 10
442.21617450817109
 20
-13.110815000000001
 10
442.2148503946122
 20
-13.067560832918526
 10
442.21088162351145
 20
-13.024423271424268
 10
442.20427889397422
 20
-12.981518606756397
 10
442.1950600057919
 20
-12.938962502305412
 10
442.18324981145719
 20
-12.896869681805095
 10
442.16888014916594
 20
-12.855353620057603
 10
442.15198975698718
 20
-12.814526237025463
 10
442.13262416843213
 20
-12.774497596115149
 10
442.11083558970364
 20
-12.735375607465581
 10
442.08668275895781
 20
-12.697265737041487
 10
442.06023078795624
 20
-12.660270722315792
 10
442.03155098653605
 20
-12.624490295307567
 10
442.00072067037132
 20
-12.590020913722128
 10
441.96782295254377
 20
-12.556955500918127
 10
441.93294651948435
 20
-12.525383195402593
 10
441.89618539189058
 20
-12.49538911052929
 10
441.85763867126315
 20
-12.467054105048152
 10
441.81741027274592
 20
-12.440454565124393
 10
441.77560864498895
 20
-12.415662198414912
 10
441.73234647779026
 20
-12.392743840757124
 10
441.68774039830402
 20
-12.371761275991366
 10
441.64191065663425
 20
-12.352771069402575
 10
441.59498080166185
 20
-12.335824415230293
 10
441.54707734797881
 20
-12.320966998658038
 10
441.49832943482704
 20
-12.308238872654135
 10
441.44886847796181
 20
-12.297674349995985
 10
441.3988278153783
 20
-12.289301910768893
 10
441.34834234785581
 20
-12.283144125588789
 10
441.29754817528897
 20
-12.279217594755835
 10
441.24658222978672
 20
-12.277532903502953
 10
441.19558190652759
 20
-12.278094593459917
 10
441.14468469336629
 20
-12.280901150409903
 10
441.09402780019099
 20
-12.285945008371572
 10
441.04374778902968
 20
-12.293212569995596
 10
440.99398020590303
 20
-12.302684243220726
 10
440.94485921541644
 20
-12.314334494090518
 10
440.89651723907571
 20
-12.328131915588365
 10
440.84908459830228
 20
-12.344039312305258
 10
440.80268916310979
 20
-12.362013800712038
 10
440.7574560073889
 20
-12.382006924765811
 10
440.71350707173025
 20
-12.403964786538863
 10
440.67096083469431
 20
-12.427828191517952
 10
440.62993199341417
 20
-12.453532808182247
 10
440.59053115439195
 20
-12.48100934142974
 10
440.55286453532386
 20
-12.51018371938458
 10
440.51703367875541
 20
-12.540977293081761
 10
440.48313517834112
 20
-12.573307048490831
 10
440.45126041844492
 20
-12.607085830307028
 10
440.42149532778421
 20
-12.642222576906587
 10
440.39392014778088
 20
-12.678622565832766
 10
440.36860921624503
 20
-12.716187669150857
 10
440.34563076697322
 20
-12.754816617983733
 10
440.32504674580213
 20
-12.794405275514849
 10
440.3069126436136
 20
-12.834846917722682
 10
440.29127734674108
 20
-12.876032521089829
 10
440.27818300518067
 20
-12.917851056511127
 10
440.26766491896211
 20
-12.960189788608501
 10
440.25975144298633
 20
-13.002934579645602
 10
440.25446391058551
 20
-13.045970197222974
 10
440.25181657601206
 20
-13.089180624924227
 10
440.25181657601206
 20
-13.132449375075776
 10
440.25446391058551
 20
-13.175659802777027
 10
440.25975144298633
 20
-13.218695420354399
 10
440.26766491896211
 20
-13.261440211391502
 10
440.27818300518067
 20
-13.303778943488874
 10
440.29127734674108
 20
-13.345597478910172
 10
440.3069126436136
 20
-13.386783082277319
 10
440.32504674580213
 20
-13.427224724485152
 10
440.34563076697322
 20
-13.466813382016268
 10
440.36860921624503
 20
-13.505442330849144
 10
440.39392014778088
 20
-13.543007434167235
 10
440.42149532778421
 20
-13.579407423093414
 10
440.45126041844492
 20
-13.614544169692973
 10
440.48313517834112
 20
-13.64832295150917
 10
440.51703367875541
 20
-13.680652706918238
 10
440.55286453532386
 20
-13.711446280615421
 10
440.59053115439195
 20
-13.740620658570261
 10
440.62993199341417
 20
-13.768097191817754
 10
440.67096083469431
 20
-13.79380180848205
 10
440.71350707173025
 20
-13.817665213461138
 10
440.7574560073889
 20
-13.83962307523419
 10
440.80268916310979
 20
-13.859616199287961
 10
440.84908459830228
 20
-13.877590687694743
 10
440.89651723907571
 20
-13.893498084411636
 10
440.94485921541644
 20
-13.907295505909481
 10
440.99398020590303
 20
-13.918945756779273
 10
441.04374778902968
 20
-13.928417430004405
 10
441.09402780019099
 20
-13.935684991628429
 10
441.14468469336629
 20
-13.940728849590096
 10
441.19558190652759
 20
-13.943535406540084
 10
441.24658222978672
 20
-13.944097096497046
 10
441.29754817528897
 20
-13.942412405244166
 10
441.34834234785581
 20
-13.938485874411212
 10
441.3988278153783
 20
-13.932328089231106
 10
441.44886847796181
 20
-13.923955650004014
 10
441.49832943482704
 20
-13.913391127345866
 10
441.54707734797881
 20
-13.900663001341961
 10
441.59498080166185
 20
-13.885805584769708
 10
441.64191065663425
 20
-13.868858930597424
 10
441.68774039830402
 20
-13.849868724008635
 10
441.73234647779026
 20
-13.828886159242876
 10
441.77560864498895
 20
-13.805967801585089
 10
441.81741027274586
 20
-13.781175434875607
 10
441.85763867126315
 20
-13.754575894951847
 10
441.89618539189058
 20
-13.726240889470709
 10
441.93294651948435
 20
-13.696246804597406
 10
441.96782295254377
 20
-13.664674499081874
 10
442.00072067037132
 20
-13.631609086277871
 10
442.03155098653605
 20
-13.597139704692434
 10
442.06023078795624
 20
-13.561359277684208
 10
442.08668275895781
 20
-13.524364262958512
 10
442.11083558970364
 20
-13.486254392534418
 10
442.13262416843213
 20
-13.447132403884851
 10
442.15198975698718
 20
-13.407103762974536
 10
442.16888014916594
 20
-13.366276379942398
 10
442.18324981145713
 20
-13.324760318194906
 10
442.1950600057919
 20
-13.282667497694588
 10
442.20427889397422
 20
-13.240111393243604
 10
442.21088162351145
 20
-13.197206728575733
 10
442.2148503946122
 20
-13.154069167081474
 97
        1
330
4BA
 75
           0
 76
           0
 98
        0
  0
ELLIPSE
  5
4BC
102
{ACAD_REACTORS
330
4BD
102
}
100
AcDbEntity
  8
0
370
           0
  6
Continuous
 62
           7
100
AcDbEllipse
 10
458.890081
 20
-13.222594
 30
0.0
 11
0.9823445081710815
 21
0.0
 31
0.0
210
0.0
220
0.0
230
1.0
 40
0.84833
 41
0.0
 42
6.2831853071795862
  0
HATCH
  5
4BD
100
AcDbEntity
  8
0
  6
Continuous
 62
           7
100
AcDbHatch
 10
0.0
 20
0.0
 30
0.0
210
0.0
220
0.0
230
1.0
  2
SOLID
 70
           1
 71
           1
 91
        1
 92
        3
 72
           0
 73
           1
 93
      121
 10
459.87242550817109
 20
-13.222594000000001
 10
459.8711013946122
 20
-13.179339832918526
 10
459.86713262351145
 20
-13.136202271424269
 10
459.86052989397422
 20
-13.093297606756398
 10
459.8513110057919
 20
-13.050741502305412
 10
459.83950081145719
 20
-13.008648681805095
 10
459.82513114916594
 20
-12.967132620057603
 10
459.80824075698717
 20
-12.926305237025463
 10
459.78887516843213
 20
-12.886276596115149
 10
459.76708658970364
 20
-12.847154607465582
 10
459.7429337589578
 20
-12.809044737041487
 10
459.71648178795624
 20
-12.772049722315792
 10
459.68780198653604
 20
-12.736269295307567
 10
459.65697167037132
 20
-12.701799913722128
 10
459.62407395254377
 20
-12.668734500918127
 10
459.58919751948434
 20
-12.637162195402594
 10
459.55243639189058
 20
-12.60716811052929
 10
459.51388967126314
 20
-12.578833105048153
 10
459.47366127274591
 20
-12.552233565124393
 10
459.43185964498895
 20
-12.527441198414913
 10
459.38859747779026
 20
-12.504522840757124
 10
459.34399139830401
 20
-12.483540275991366
 10
459.29816165663425
 20
-12.464550069402575
 10
459.25123180166185
 20
-12.447603415230294
 10
459.20332834797881
 20
-12.432745998658039
 10
459.15458043482704
 20
-12.420017872654135
 10
459.10511947796181
 20
-12.409453349995985
 10
459.05507881537829
 20
-12.401080910768894
 10
459.0045933478558
 20
-12.39492312558879
 10
458.95379917528896
 20
-12.390996594755835
 10
458.90283322978672
 20
-12.389311903502954
 10
458.85183290652759
 20
-12.389873593459917
 10
458.80093569336628
 20
-12.392680150409904
 10
458.75027880019098
 20
-12.397724008371572
 10
458.69999878902968
 20
-12.404991569995596
 10
458.65023120590303
 20
-12.414463243220727
 10
458.60111021541644
 20
-12.426113494090519
 10
458.5527682390757
 20
-12.439910915588365
 10
458.50533559830228
 20
-12.455818312305258
 10
458.45894016310979
 20
-12.473792800712038
 10
458.41370700738889
 20
-12.493785924765811
 10
458.36975807173025
 20
-12.515743786538863
 10
458.32721183469431
 20
-12.539607191517952
 10
458.28618299341417
 20
-12.565311808182248
 10
458.24678215439195
 20
-12.59278834142974
 10
458.20911553532386
 20
-12.62196271938458
 10
458.17328467875541
 20
-12.652756293081762
 10
458.13938617834111
 20
-12.685086048490831
 10
458.10751141844491
 20
-12.718864830307028
 10
458.07774632778421
 20
-12.754001576906587
 10
458.05017114778087
 20
-12.790401565832767
 10
458.02486021624503
 20
-12.827966669150857
 10
458.00188176697321
 20
-12.866595617983734
 10
457.98129774580212
 20
-12.90618427551485
 10
457.9631636436136
 20
-12.946625917722683
 10
457.94752834674108
 20
-12.98781152108983
 10
457.93443400518066
 20
-13.029630056511127
 10
457.92391591896211
 20
-13.071968788608501
 10
457.91600244298633
 20
-13.114713579645603
 10
457.91071491058551
 20
-13.157749197222975
 10
457.90806757601206
 20
-13.200959624924227
 10
457.90806757601206
 20
-13.244228375075776
 10
457.91071491058551
 20
-13.287438802777027
 10
457.91600244298633
 20
-13.330474420354399
 10
457.92391591896211
 20
-13.373219211391502
 10
457.93443400518066
 20
-13.415557943488874
 10
457.94752834674108
 20
-13.457376478910172
 10
457.9631636436136
 20
-13.498562082277319
 10
457.98129774580212
 20
-13.539003724485152
 10
458.00188176697321
 20
-13.578592382016268
 10
458.02486021624503
 20
-13.617221330849144
 10
458.05017114778087
 20
-13.654786434167235
 10
458.07774632778421
 20
-13.691186423093415
 10
458.10751141844491
 20
-13.726323169692973
 10
458.13938617834111
 20
-13.760101951509171
 10
458.17328467875541
 20
-13.792431706918238
 10
458.20911553532386
 20
-13.823225280615421
 10
458.24678215439195
 20
-13.852399658570262
 10
458.28618299341417
 20
-13.879876191817754
 10
458.32721183469431
 20
-13.90558080848205
 10
458.36975807173025
 20
-13.929444213461139
 10
458.41370700738889
 20
-13.95140207523419
 10
458.45894016310979
 20
-13.971395199287961
 10
458.50533559830228
 20
-13.989369687694744
 10
458.5527682390757
 20
-14.005277084411636
 10
458.60111021541644
 20
-14.019074505909481
 10
458.65023120590303
 20
-14.030724756779273
 10
458.69999878902968
 20
-14.040196430004405
 10
458.75027880019098
 20
-14.04746399162843
 10
458.80093569336628
 20
-14.052507849590096
 10
458.85183290652759
 20
-14.055314406540084
 10
458.90283322978672
 20
-14.055876096497046
 10
458.95379917528896
 20
-14.054191405244167
 10
459.0045933478558
 20
-14.050264874411212
 10
459.05507881537829
 20
-14.044107089231106
 10
459.10511947796181
 20
-14.035734650004015
 10
459.15458043482704
 20
-14.025170127345866
 10
459.20332834797881
 20
-14.012442001341961
 10
459.25123180166185
 20
-13.997584584769708
 10
459.29816165663425
 20
-13.980637930597425
 10
459.34399139830401
 20
-13.961647724008635
 10
459.38859747779026
 20
-13.940665159242876
 10
459.43185964498895
 20
-13.917746801585089
 10
459.47366127274586
 20
-13.892954434875607
 10
459.51388967126314
 20
-13.866354894951847
 10
459.55243639189058
 20
-13.83801988947071
 10
459.58919751948434
 20
-13.808025804597406
 10
459.62407395254377
 20
-13.776453499081875
 10
459.65697167037132
 20
-13.743388086277871
 10
459.68780198653604
 20
-13.708918704692435
 10
459.71648178795624
 20
-13.673138277684208
 10
459.7429337589578
 20
-13.636143262958512
 10
459.76708658970364
 20
-13.598033392534418
 10
459.78887516843213
 20
-13.558911403884851
 10
459.80824075698717
 20
-13.518882762974537
 10
459.82513114916594
 20
-13.478055379942399
 10
459.83950081145713
 20
-13.436539318194907
 10
459.8513110057919
 20
-13.394446497694588
 10
459.86052989397422
 20
-13.351890393243604
 10
459.86713262351145
 20
-13.308985728575733
 10
459.8711013946122
 20
-13.265848167081474
 97
        1
330
4BC
 75
           0
 76
           0
 98
        0
  0
ELLIPSE
  5
4BE
102
{ACAD_REACTORS
330
4BF
102
}
100
AcDbEntity
  8
0
370
           0
  6
Continuous
 62
           7
100
AcDbEllipse
 10
447.196113
 20
-13.082871
 30
0.0
 11
0.9823445081710815
 21
0.0
 31
0.0
210
0.0
220
0.0
230
1.0
 40
0.84833
 41
0.0
 42
6.2831853071795862
  0
HATCH
  5
4BF
100
AcDbEntity
  8
0
  6
Continuous
 62
           7
100
AcDbHatch
 10
0.0
 20
0.0
 30
0.0
210
0.0
220
0.0
230
1.0
  2
SOLID
 70
           1
 71
           1
 91
        1
 92
        3
 72
           0
 73
           1
 93
      121
 10
448.17845750817111
 20
-13.082871000000001
 10
448.17713339461221
 20
-13.039616832918526
 10
448.17316462351147
 20
-12.996479271424269
 10
448.16656189397423
 20
-12.953574606756398
 10
448.15734300579192
 20
-12.911018502305412
 10
448.1455328114572
 20
-12.868925681805095
 10
448.13116314916596
 20
-12.827409620057603
 10
448.11427275698719
 20
-12.786582237025463
 10
448.09490716843214
 20
-12.746553596115149
 10
448.07311858970365
 20
-12.707431607465582
 10
448.04896575895782
 20
-12.669321737041487
 10
448.02251378795626
 20
-12.632326722315792
 10
447.99383398653606
 20
-12.596546295307567
 10
447.96300367037134
 20
-12.562076913722128
 10
447.93010595254378
 20
-12.529011500918127
 10
447.89522951948436
 20
-12.497439195402594
 10
447.8584683918906
 20
-12.46744511052929
 10
447.81992167126316
 20
-12.439110105048153
 10
447.77969327274593
 20
-12.412510565124393
 10
447.73789164498896
 20
-12.387718198414913
 10
447.69462947779027
 20
-12.364799840757124
 10
447.65002339830403
 20
-12.343817275991366
 10
447.60419365663427
 20
-12.324827069402575
 10
447.55726380166186
 20
-12.307880415230294
 10
447.50936034797883
 20
-12.293022998658039
 10
447.46061243482706
 20
-12.280294872654135
 10
447.41115147796182
 20
-12.269730349995985
 10
447.36111081537831
 20
-12.261357910768893
 10
447.31062534785582
 20
-12.255200125588789
 10
447.25983117528898
 20
-12.251273594755835
 10
447.20886522978674
 20
-12.249588903502953
 10
447.15786490652761
 20
-12.250150593459917
 10
447.1069676933663
 20
-12.252957150409904
 10
447.056310800191
 20
-12.258001008371572
 10
447.00603078902969
 20
-12.265268569995596
 10
446.95626320590304
 20
-12.274740243220727
 10
446.90714221541646
 20
-12.286390494090519
 10
446.85880023907572
 20
-12.300187915588365
 10
446.8113675983023
 20
-12.316095312305258
 10
446.7649721631098
 20
-12.334069800712038
 10
446.71973900738891
 20
-12.354062924765811
 10
446.67579007173026
 20
-12.376020786538863
 10
446.63324383469433
 20
-12.399884191517952
 10
446.59221499341419
 20
-12.425588808182248
 10
446.55281415439197
 20
-12.45306534142974
 10
446.51514753532388
 20
-12.48223971938458
 10
446.47931667875542
 20
-12.513033293081762
 10
446.44541817834113
 20
-12.545363048490831
 10
446.41354341844493
 20
-12.579141830307028
 10
446.38377832778423
 20
-12.614278576906587
 10
446.35620314778089
 20
-12.650678565832767
 10
446.33089221624505
 20
-12.688243669150857
 10
446.30791376697323
 20
-12.726872617983734
 10
446.28732974580214
 20
-12.76646127551485
 10
446.26919564361361
 20
-12.806902917722683
 10
446.2535603467411
 20
-12.84808852108983
 10
446.24046600518068
 20
-12.889907056511127
 10
446.22994791896213
 20
-12.932245788608501
 10
446.22203444298634
 20
-12.974990579645603
 10
446.21674691058553
 20
-13.018026197222975
 10
446.21409957601207
 20
-13.061236624924227
 10
446.21409957601207
 20
-13.104505375075776
 10
446.21674691058553
 20
-13.147715802777027
 10
446.22203444298634
 20
-13.190751420354399
 10
446.22994791896213
 20
-13.233496211391502
 10
446.24046600518068
 20
-13.275834943488874
 10
446.2535603467411
 20
-13.317653478910172
 10
446.26919564361361
 20
-13.358839082277319
 10
446.28732974580214
 20
-13.399280724485152
 10
446.30791376697323
 20
-13.438869382016268
 10
446.33089221624505
 20
-13.477498330849144
 10
446.35620314778089
 20
-13.515063434167235
 10
446.38377832778423
 20
-13.551463423093415
 10
446.41354341844493
 20
-13.586600169692973
 10
446.44541817834113
 20
-13.620378951509171
 10
446.47931667875542
 20
-13.652708706918238
 10
446.51514753532388
 20
-13.683502280615421
 10
446.55281415439197
 20
-13.712676658570262
 10
446.59221499341419
 20
-13.740153191817754
 10
446.63324383469433
 20
-13.76585780848205
 10
446.67579007173026
 20
-13.789721213461139
 10
446.71973900738891
 20
-13.81167907523419
 10
446.7649721631098
 20
-13.831672199287961
 10
446.8113675983023
 20
-13.849646687694744
 10
446.85880023907572
 20
-13.865554084411636
 10
446.90714221541646
 20
-13.879351505909481
 10
446.95626320590304
 20
-13.891001756779273
 10
447.00603078902969
 20
-13.900473430004405
 10
447.056310800191
 20
-13.90774099162843
 10
447.1069676933663
 20
-13.912784849590096
 10
447.15786490652761
 20
-13.915591406540084
 10
447.20886522978674
 20
-13.916153096497046
 10
447.25983117528898
 20
-13.914468405244167
 10
447.31062534785582
 20
-13.910541874411212
 10
447.36111081537831
 20
-13.904384089231106
 10
447.41115147796182
 20
-13.896011650004015
 10
447.46061243482706
 20
-13.885447127345866
 10
447.50936034797883
 20
-13.872719001341961
 10
447.55726380166186
 20
-13.857861584769708
 10
447.60419365663427
 20
-13.840914930597425
 10
447.65002339830403
 20
-13.821924724008635
 10
447.69462947779027
 20
-13.800942159242876
 10
447.73789164498896
 20
-13.778023801585089
 10
447.77969327274587
 20
-13.753231434875607
 10
447.81992167126316
 20
-13.726631894951847
 10
447.8584683918906
 20
-13.69829688947071
 10
447.89522951948436
 20
-13.668302804597406
 10
447.93010595254378
 20
-13.636730499081875
 10
447.96300367037134
 20
-13.603665086277871
 10
447.99383398653606
 20
-13.569195704692435
 10
448.02251378795626
 20
-13.533415277684208
 10
448.04896575895782
 20
-13.496420262958512
 10
448.07311858970365
 20
-13.458310392534418
 10
448.09490716843214
 20
-13.419188403884851
 10
448.11427275698719
 20
-13.379159762974536
 10
448.13116314916596
 20
-13.338332379942399
 10
448.14553281145714
 20
-13.296816318194907
 10
448.15734300579192
 20
-13.254723497694588
 10
448.16656189397423
 20
-13.212167393243604
 10
448.17316462351147
 20
-13.169262728575733
 10
448.17713339461221
 20
-13.126125167081474
 97
        1
330
4BE
 75
           0
 76
           0
 98
        0
  0
ELLIPSE
  5
4C0
102
{ACAD_REACTORS
330
4C1
102
}
100
AcDbEntity
  8
0
370
           0
  6
Continuous
 62
           7
100
AcDbEllipse
 10
453.125446
 20
-13.138759
 30
0.0
 11
0.9823445081710815
 21
0.0
 31
0.0
210
0.0
220
0.0
230
1.0
 40
0.84833
 41
0.0
 42
6.2831853071795862
  0
HATCH
  5
4C1
100
AcDbEntity
  8
0
  6
Continuous
 62
           7
100
AcDbHatch
 10
0.0
 20
0.0
 30
0.0
210
0.0
220
0.0
230
1.0
  2
SOLID
 70
           1
 71
           1
 91
        1
 92
        3
 72
           0
 73
           1
 93
      121
 10
454.10779050817109
 20
-13.138759
 10
454.1064663946122
 20
-13.095504832918525
 10
454.10249762351145
 20
-13.052367271424268
 10
454.09589489397422
 20
-13.009462606756397
 10
454.0866760057919
 20
-12.966906502305411
 10
454.07486581145719
 20
-12.924813681805094
 10
454.06049614916594
 20
-12.883297620057602
 10
454.04360575698718
 20
-12.842470237025463
 10
454.02424016843213
 20
-12.802441596115148
 10
454.00245158970364
 20
-12.763319607465581
 10
453.97829875895781
 20
-12.725209737041487
 10
453.95184678795624
 20
-12.688214722315792
 10
453.92316698653605
 20
-12.652434295307566
 10
453.89233667037132
 20
-12.617964913722128
 10
453.85943895254377
 20
-12.584899500918127
 10
453.82456251948435
 20
-12.553327195402593
 10
453.78780139189058
 20
-12.52333311052929
 10
453.74925467126315
 20
-12.494998105048152
 10
453.70902627274592
 20
-12.468398565124392
 10
453.66722464498895
 20
-12.443606198414912
 10
453.62396247779026
 20
-12.420687840757124
 10
453.57935639830401
 20
-12.399705275991366
 10
453.53352665663425
 20
-12.380715069402575
 10
453.48659680166185
 20
-12.363768415230293
 10
453.43869334797881
 20
-12.348910998658038
 10
453.38994543482704
 20
-12.336182872654135
 10
453.34048447796181
 20
-12.325618349995985
 10
453.2904438153783
 20
-12.317245910768893
 10
453.2399583478558
 20
-12.311088125588789
 10
453.18916417528897
 20
-12.307161594755835
 10
453.13819822978672
 20
-12.305476903502953
 10
453.08719790652759
 20
-12.306038593459917
 10
453.03630069336629
 20
-12.308845150409903
 10
452.98564380019099
 20
-12.313889008371572
 10
452.93536378902968
 20
-12.321156569995596
 10
452.88559620590303
 20
-12.330628243220726
 10
452.83647521541644
 20
-12.342278494090518
 10
452.78813323907571
 20
-12.356075915588365
 10
452.74070059830228
 20
-12.371983312305257
 10
452.69430516310979
 20
-12.389957800712038
 10
452.6490720073889
 20
-12.409950924765811
 10
452.60512307173025
 20
-12.431908786538862
 10
452.56257683469431
 20
-12.455772191517951
 10
452.52154799341417
 20
-12.481476808182247
 10
452.48214715439195
 20
-12.50895334142974
 10
452.44448053532386
 20
-12.53812771938458
 10
452.40864967875541
 20
-12.568921293081761
 10
452.37475117834111
 20
-12.60125104849083
 10
452.34287641844492
 20
-12.635029830307028
 10
452.31311132778421
 20
-12.670166576906587
 10
452.28553614778087
 20
-12.706566565832766
 10
452.26022521624503
 20
-12.744131669150857
 10
452.23724676697321
 20
-12.782760617983733
 10
452.21666274580213
 20
-12.822349275514849
 10
452.1985286436136
 20
-12.862790917722682
 10
452.18289334674108
 20
-12.903976521089829
 10
452.16979900518066
 20
-12.945795056511127
 10
452.15928091896211
 20
-12.988133788608501
 10
452.15136744298633
 20
-13.030878579645602
 10
452.14607991058551
 20
-13.073914197222974
 10
452.14343257601206
 20
-13.117124624924227
 10
452.14343257601206
 20
-13.160393375075776
 10
452.14607991058551
 20
-13.203603802777026
 10
452.15136744298633
 20
-13.246639420354398
 10
452.15928091896211
 20
-13.289384211391502
 10
452.16979900518066
 20
-13.331722943488874
 10
452.18289334674108
 20
-13.373541478910171
 10
452.1985286436136
 20
-13.414727082277318
 10
452.21666274580213
 20
-13.455168724485151
 10
452.23724676697321
 20
-13.494757382016267
 10
452.26022521624503
 20
-13.533386330849144
 10
452.28553614778087
 20
-13.570951434167235
 10
452.31311132778421
 20
-13.607351423093414
 10
452.34287641844492
 20
-13.642488169692973
 10
452.37475117834111
 20
-13.67626695150917
 10
452.40864967875541
 20
-13.708596706918238
 10
452.44448053532386
 20
-13.739390280615421
 10
452.48214715439195
 20
-13.768564658570261
 10
452.52154799341417
 20
-13.796041191817753
 10
452.56257683469431
 20
-13.821745808482049
 10
452.60512307173025
 20
-13.845609213461138
 10
452.6490720073889
 20
-13.86756707523419
 10
452.69430516310979
 20
-13.887560199287961
 10
452.74070059830228
 20
-13.905534687694743
 10
452.78813323907571
 20
-13.921442084411636
 10
452.83647521541644
 20
-13.935239505909481
 10
452.88559620590303
 20
-13.946889756779273
 10
452.93536378902968
 20
-13.956361430004405
 10
452.98564380019099
 20
-13.963628991628429
 10
453.03630069336629
 20
-13.968672849590096
 10
453.08719790652759
 20
-13.971479406540084
 10
453.13819822978672
 20
-13.972041096497046
 10
453.18916417528897
 20
-13.970356405244166
 10
453.2399583478558
 20
-13.966429874411212
 10
453.2904438153783
 20
-13.960272089231106
 10
453.34048447796181
 20
-13.951899650004014
 10
453.38994543482704
 20
-13.941335127345866
 10
453.43869334797881
 20
-13.928607001341961
 10
453.48659680166185
 20
-13.913749584769707
 10
453.53352665663425
 20
-13.896802930597424
 10
453.57935639830401
 20
-13.877812724008635
 10
453.62396247779026
 20
-13.856830159242875
 10
453.66722464498895
 20
-13.833911801585089
 10
453.70902627274586
 20
-13.809119434875607
 10
453.74925467126315
 20
-13.782519894951847
 10
453.78780139189058
 20
-13.754184889470709
 10
453.82456251948435
 20
-13.724190804597406
 10
453.85943895254377
 20
-13.692618499081874
 10
453.89233667037132
 20
-13.659553086277871
 10
453.92316698653605
 20
-13.625083704692434
 10
453.95184678795624
 20
-13.589303277684207
 10
453.97829875895781
 20
-13.552308262958512
 10
454.00245158970364
 20
-13.514198392534418
 10
454.02424016843213
 20
-13.475076403884851
 10
454.04360575698718
 20
-13.435047762974536
 10
454.06049614916594
 20
-13.394220379942398
 10
454.07486581145713
 20
-13.352704318194906
 10
454.0866760057919
 20
-13.310611497694588
 10
454.09589489397422
 20
-13.268055393243603
 10
454.10249762351145
 20
-13.225150728575732
 10
454.1064663946122
 20
-13.182013167081474
 97
        1
330
4C0
 75
           0
 76
           0
 98
        0
  0
ELLIPSE
  5
4C2
102
{ACAD_REACTORS
330
4C3
102
}
100
AcDbEntity
  8
0
370
           0
  6
Continuous
 62
           7
100
AcDbEllipse
 10
428.749287
 20
-13.026982
 30
0.0
 11
0.9823445081710815
 21
0.0
 31
0.0
210
0.0
220
0.0
230
1.0
 40
0.84833
 41
0.0
 42
6.2831853071795862
  0
HATCH
  5
4C3
100
AcDbEntity
  8
0
  6
Continuous
 62
           7
100
AcDbHatch
 10
0.0
 20
0.0
 30
0.0
210
0.0
220
0.0
230
1.0
  2
SOLID
 70
           1
 71
           1
 91
        1
 92
        3
 72
           0
 73
           1
 93
      121
 10
429.73163150817106
 20
-13.026982
 10
429.73030739461217
 20
-12.983727832918525
 10
429.72633862351142
 20
-12.940590271424268
 10
429.71973589397419
 20
-12.897685606756397
 10
429.71051700579187
 20
-12.855129502305411
 10
429.69870681145716
 20
-12.813036681805094
 10
429.68433714916591
 20
-12.771520620057602
 10
429.66744675698715
 20
-12.730693237025463
 10
429.6480811684321
 20
-12.690664596115148
 10
429.62629258970361
 20
-12.651542607465581
 10
429.60213975895778
 20
-12.613432737041487
 10
429.57568778795621
 20
-12.576437722315791
 10
429.54700798653602
 20
-12.540657295307566
 10
429.51617767037129
 20
-12.506187913722128
 10
429.48327995254374
 20
-12.473122500918127
 10
429.44840351948432
 20
-12.441550195402593
 10
429.41164239189055
 20
-12.41155611052929
 10
429.37309567126312
 20
-12.383221105048152
 10
429.33286727274589
 20
-12.356621565124392
 10
429.29106564498892
 20
-12.331829198414912
 10
429.24780347779023
 20
-12.308910840757123
 10
429.20319739830398
 20
-12.287928275991366
 10
429.15736765663422
 20
-12.268938069402575
 10
429.11043780166182
 20
-12.251991415230293
 10
429.06253434797878
 20
-12.237133998658038
 10
429.01378643482701
 20
-12.224405872654135
 10
428.96432547796178
 20
-12.213841349995985
 10
428.91428481537827
 20
-12.205468910768893
 10
428.86379934785577
 20
-12.199311125588789
 10
428.81300517528894
 20
-12.195384594755835
 10
428.76203922978669
 20
-12.193699903502953
 10
428.71103890652756
 20
-12.194261593459917
 10
428.66014169336626
 20
-12.197068150409903
 10
428.60948480019096
 20
-12.202112008371572
 10
428.55920478902965
 20
-12.209379569995596
 10
428.509437205903
 20
-12.218851243220726
 10
428.46031621541641
 20
-12.230501494090518
 10
428.41197423907568
 20
-12.244298915588365
 10
428.36454159830225
 20
-12.260206312305257
 10
428.31814616310976
 20
-12.278180800712038
 10
428.27291300738887
 20
-12.298173924765811
 10
428.22896407173022
 20
-12.320131786538862
 10
428.18641783469428
 20
-12.343995191517951
 10
428.14538899341414
 20
-12.369699808182247
 10
428.10598815439192
 20
-12.39717634142974
 10
428.06832153532383
 20
-12.42635071938458
 10
428.03249067875538
 20
-12.457144293081761
 10
427.99859217834108
 20
-12.48947404849083
 10
427.96671741844489
 20
-12.523252830307028
 10
427.93695232778418
 20
-12.558389576906587
 10
427.90937714778084
 20
-12.594789565832766
 10
427.884066216245
 20
-12.632354669150857
 10
427.86108776697318
 20
-12.670983617983733
 10
427.8405037458021
 20
-12.710572275514849
 10
427.82236964361357
 20
-12.751013917722682
 10
427.80673434674105
 20
-12.792199521089829
 10
427.79364000518063
 20
-12.834018056511127
 10
427.78312191896208
 20
-12.876356788608501
 10
427.7752084429863
 20
-12.919101579645602
 10
427.76992091058548
 20
-12.962137197222974
 10
427.76727357601203
 20
-13.005347624924227
 10
427.76727357601203
 20
-13.048616375075776
 10
427.76992091058548
 20
-13.091826802777026
 10
427.7752084429863
 20
-13.134862420354398
 10
427.78312191896208
 20
-13.177607211391502
 10
427.79364000518063
 20
-13.219945943488874
 10
427.80673434674105
 20
-13.261764478910171
 10
427.82236964361357
 20
-13.302950082277318
 10
427.8405037458021
 20
-13.343391724485151
 10
427.86108776697318
 20
-13.382980382016267
 10
427.884066216245
 20
-13.421609330849144
 10
427.90937714778084
 20
-13.459174434167235
 10
427.93695232778418
 20
-13.495574423093414
 10
427.96671741844489
 20
-13.530711169692973
 10
427.99859217834108
 20
-13.56448995150917
 10
428.03249067875538
 20
-13.596819706918238
 10
428.06832153532383
 20
-13.627613280615421
 10
428.10598815439192
 20
-13.656787658570261
 10
428.14538899341414
 20
-13.684264191817753
 10
428.18641783469428
 20
-13.709968808482049
 10
428.22896407173022
 20
-13.733832213461138
 10
428.27291300738887
 20
-13.75579007523419
 10
428.31814616310976
 20
-13.775783199287961
 10
428.36454159830225
 20
-13.793757687694743
 10
428.41197423907568
 20
-13.809665084411636
 10
428.46031621541641
 20
-13.823462505909481
 10
428.509437205903
 20
-13.835112756779273
 10
428.55920478902965
 20
-13.844584430004405
 10
428.60948480019096
 20
-13.851851991628429
 10
428.66014169336626
 20
-13.856895849590096
 10
428.71103890652756
 20
-13.859702406540084
 10
428.76203922978669
 20
-13.860264096497046
 10
428.81300517528894
 20
-13.858579405244166
 10
428.86379934785577
 20
-13.854652874411212
 10
428.91428481537827
 20
-13.848495089231106
 10
428.96432547796178
 20
-13.840122650004014
 10
429.01378643482701
 20
-13.829558127345866
 10
429.06253434797878
 20
-13.816830001341961
 10
429.11043780166182
 20
-13.801972584769707
 10
429.15736765663422
 20
-13.785025930597424
 10
429.20319739830398
 20
-13.766035724008635
 10
429.24780347779023
 20
-13.745053159242875
 10
429.29106564498892
 20
-13.722134801585089
 10
429.33286727274583
 20
-13.697342434875607
 10
429.37309567126312
 20
-13.670742894951847
 10
429.41164239189055
 20
-13.642407889470709
 10
429.44840351948432
 20
-13.612413804597406
 10
429.48327995254374
 20
-13.580841499081874
 10
429.51617767037129
 20
-13.547776086277871
 10
429.54700798653602
 20
-13.513306704692434
 10
429.57568778795621
 20
-13.477526277684207
 10
429.60213975895778
 20
-13.440531262958512
 10
429.62629258970361
 20
-13.402421392534418
 10
429.6480811684321
 20
-13.36329940388485
 10
429.66744675698715
 20
-13.323270762974536
 10
429.68433714916591
 20
-13.282443379942398
 10
429.6987068114571
 20
-13.240927318194906
 10
429.71051700579187
 20
-13.198834497694587
 10
429.71973589397419
 20
-13.156278393243603
 10
429.72633862351142
 20
-13.113373728575732
 10
429.73030739461217
 20
-13.070236167081474
 97
        1
330
4C2
 75
           0
 76
           0
 98
        0
  0
ELLIPSE
  5
4C4
102
{ACAD_REACTORS
330
4C5
102
}
100
AcDbEntity
  8
0
370
           0
  6
Continuous
 62
           7
100
AcDbEllipse
 10
417.154149
 20
-13.026982
 30
0.0
 11
0.9823445081710815
 21
0.0
 31
0.0
210
0.0
220
0.0
230
1.0
 40
0.84833
 41
0.0
 42
6.2831853071795862
  0
HATCH
  5
4C5
100
AcDbEntity
  8
0
  6
Continuous
 62
           7
100
AcDbHatch
 10
0.0
 20
0.0
 30
0.0
210
0.0
220
0.0
230
1.0
  2
SOLID
 70
           1
 71
           1
 91
        1
 92
        3
 72
           0
 73
           1
 93
      121
 10
418.1364935081711
 20
-13.026982
 10
418.13516939461221
 20
-12.983727832918525
 10
418.13120062351146
 20
-12.940590271424268
 10
418.12459789397423
 20
-12.897685606756397
 10
418.11537900579191
 20
-12.855129502305411
 10
418.10356881145719
 20
-12.813036681805094
 10
418.08919914916595
 20
-12.771520620057602
 10
418.07230875698718
 20
-12.730693237025463
 10
418.05294316843214
 20
-12.690664596115148
 10
418.03115458970365
 20
-12.651542607465581
 10
418.00700175895781
 20
-12.613432737041487
 10
417.98054978795625
 20
-12.576437722315791
 10
417.95186998653605
 20
-12.540657295307566
 10
417.92103967037133
 20
-12.506187913722128
 10
417.88814195254378
 20
-12.473122500918127
 10
417.85326551948435
 20
-12.441550195402593
 10
417.81650439189059
 20
-12.41155611052929
 10
417.77795767126315
 20
-12.383221105048152
 10
417.73772927274592
 20
-12.356621565124392
 10
417.69592764498896
 20
-12.331829198414912
 10
417.65266547779026
 20
-12.308910840757123
 10
417.60805939830402
 20
-12.287928275991366
 10
417.56222965663426
 20
-12.268938069402575
 10
417.51529980166185
 20
-12.251991415230293
 10
417.46739634797882
 20
-12.237133998658038
 10
417.41864843482705
 20
-12.224405872654135
 10
417.36918747796182
 20
-12.213841349995985
 10
417.3191468153783
 20
-12.205468910768893
 10
417.26866134785581
 20
-12.199311125588789
 10
417.21786717528897
 20
-12.195384594755835
 10
417.16690122978673
 20
-12.193699903502953
 10
417.1159009065276
 20
-12.194261593459917
 10
417.06500369336629
 20
-12.197068150409903
 10
417.01434680019099
 20
-12.202112008371572
 10
416.96406678902969
 20
-12.209379569995596
 10
416.91429920590303
 20
-12.218851243220726
 10
416.86517821541645
 20
-12.230501494090518
 10
416.81683623907571
 20
-12.244298915588365
 10
416.76940359830229
 20
-12.260206312305257
 10
416.7230081631098
 20
-12.278180800712038
 10
416.6777750073889
 20
-12.298173924765811
 10
416.63382607173025
 20
-12.320131786538862
 10
416.59127983469432
 20
-12.343995191517951
 10
416.55025099341418
 20
-12.369699808182247
 10
416.51085015439196
 20
-12.39717634142974
 10
416.47318353532387
 20
-12.42635071938458
 10
416.43735267875542
 20
-12.457144293081761
 10
416.40345417834112
 20
-12.48947404849083
 10
416.37157941844492
 20
-12.523252830307028
 10
416.34181432778422
 20
-12.558389576906587
 10
416.31423914778088
 20
-12.594789565832766
 10
416.28892821624504
 20
-12.632354669150857
 10
416.26594976697322
 20
-12.670983617983733
 10
416.24536574580213
 20
-12.710572275514849
 10
416.22723164361361
 20
-12.751013917722682
 10
416.21159634674109
 20
-12.792199521089829
 10
416.19850200518067
 20
-12.834018056511127
 10
416.18798391896212
 20
-12.876356788608501
 10
416.18007044298633
 20
-12.919101579645602
 10
416.17478291058552
 20
-12.962137197222974
 10
416.17213557601207
 20
-13.005347624924227
 10
416.17213557601207
 20
-13.048616375075776
 10
416.17478291058552
 20
-13.091826802777026
 10
416.18007044298633
 20
-13.134862420354398
 10
416.18798391896212
 20
-13.177607211391502
 10
416.19850200518067
 20
-13.219945943488874
 10
416.21159634674109
 20
-13.261764478910171
 10
416.22723164361361
 20
-13.302950082277318
 10
416.24536574580213
 20
-13.343391724485151
 10
416.26594976697322
 20
-13.382980382016267
 10
416.28892821624504
 20
-13.421609330849144
 10
416.31423914778088
 20
-13.459174434167235
 10
416.34181432778422
 20
-13.495574423093414
 10
416.37157941844492
 20
-13.530711169692973
 10
416.40345417834112
 20
-13.56448995150917
 10
416.43735267875542
 20
-13.596819706918238
 10
416.47318353532387
 20
-13.627613280615421
 10
416.51085015439196
 20
-13.656787658570261
 10
416.55025099341418
 20
-13.684264191817753
 10
416.59127983469432
 20
-13.709968808482049
 10
416.63382607173025
 20
-13.733832213461138
 10
416.6777750073889
 20
-13.75579007523419
 10
416.7230081631098
 20
-13.775783199287961
 10
416.76940359830229
 20
-13.793757687694743
 10
416.81683623907571
 20
-13.809665084411636
 10
416.86517821541645
 20
-13.823462505909481
 10
416.91429920590303
 20
-13.835112756779273
 10
416.96406678902969
 20
-13.844584430004405
 10
417.01434680019099
 20
-13.851851991628429
 10
417.06500369336629
 20
-13.856895849590096
 10
417.1159009065276
 20
-13.859702406540084
 10
417.16690122978673
 20
-13.860264096497046
 10
417.21786717528897
 20
-13.858579405244166
 10
417.26866134785581
 20
-13.854652874411212
 10
417.3191468153783
 20
-13.848495089231106
 10
417.36918747796182
 20
-13.840122650004014
 10
417.41864843482705
 20
-13.829558127345866
 10
417.46739634797882
 20
-13.816830001341961
 10
417.51529980166185
 20
-13.801972584769707
 10
417.56222965663426
 20
-13.785025930597424
 10
417.60805939830402
 20
-13.766035724008635
 10
417.65266547779026
 20
-13.745053159242875
 10
417.69592764498896
 20
-13.722134801585089
 10
417.73772927274587
 20
-13.697342434875607
 10
417.77795767126315
 20
-13.670742894951847
 10
417.81650439189059
 20
-13.642407889470709
 10
417.85326551948435
 20
-13.612413804597406
 10
417.88814195254378
 20
-13.580841499081874
 10
417.92103967037133
 20
-13.547776086277871
 10
417.95186998653605
 20
-13.513306704692434
 10
417.98054978795625
 20
-13.477526277684207
 10
418.00700175895781
 20
-13.440531262958512
 10
418.03115458970365
 20
-13.402421392534418
 10
418.05294316843214
 20
-13.36329940388485
 10
418.07230875698718
 20
-13.323270762974536
 10
418.08919914916595
 20
-13.282443379942398
 10
418.10356881145714
 20
-13.240927318194906
 10
418.11537900579191
 20
-13.198834497694587
 10
418.12459789397423
 20
-13.156278393243603
 10
418.13120062351146
 20
-13.113373728575732
 10
418.13516939461221
 20
-13.070236167081474
 97
        1
330
4C4
 75
           0
 76
           0
 98
        0
  0
ELLIPSE
  5
4C6
102
{ACAD_REACTORS
330
4C7
102
}
100
AcDbEntity
  8
0
370
           0
  6
Continuous
 62
           7
100
AcDbEllipse
 10
434.876277
 20
-13.026982
 30
0.0
 11
0.9823445081710815
 21
0.0
 31
0.0
210
0.0
220
0.0
230
1.0
 40
0.84833
 41
0.0
 42
6.2831853071795862
  0
HATCH
  5
4C7
100
AcDbEntity
  8
0
  6
Continuous
 62
           7
100
AcDbHatch
 10
0.0
 20
0.0
 30
0.0
210
0.0
220
0.0
230
1.0
  2
SOLID
 70
           1
 71
           1
 91
        1
 92
        3
 72
           0
 73
           1
 93
      121
 10
435.8586215081711
 20
-13.026982
 10
435.8572973946122
 20
-12.983727832918525
 10
435.85332862351146
 20
-12.940590271424268
 10
435.84672589397422
 20
-12.897685606756397
 10
435.83750700579191
 20
-12.855129502305411
 10
435.82569681145719
 20
-12.813036681805094
 10
435.81132714916595
 20
-12.771520620057602
 10
435.79443675698718
 20
-12.730693237025463
 10
435.77507116843213
 20
-12.690664596115148
 10
435.75328258970364
 20
-12.651542607465581
 10
435.72912975895781
 20
-12.613432737041487
 10
435.70267778795625
 20
-12.576437722315791
 10
435.67399798653605
 20
-12.540657295307566
 10
435.64316767037133
 20
-12.506187913722128
 10
435.61026995254377
 20
-12.473122500918127
 10
435.57539351948435
 20
-12.441550195402593
 10
435.53863239189059
 20
-12.41155611052929
 10
435.50008567126315
 20
-12.383221105048152
 10
435.45985727274592
 20
-12.356621565124392
 10
435.41805564498895
 20
-12.331829198414912
 10
435.37479347779026
 20
-12.308910840757123
 10
435.33018739830402
 20
-12.287928275991366
 10
435.28435765663426
 20
-12.268938069402575
 10
435.23742780166185
 20
-12.251991415230293
 10
435.18952434797882
 20
-12.237133998658038
 10
435.14077643482705
 20
-12.224405872654135
 10
435.09131547796181
 20
-12.213841349995985
 10
435.0412748153783
 20
-12.205468910768893
 10
434.99078934785581
 20
-12.199311125588789
 10
434.93999517528897
 20
-12.195384594755835
 10
434.88902922978673
 20
-12.193699903502953
 10
434.8380289065276
 20
-12.194261593459917
 10
434.78713169336629
 20
-12.197068150409903
 10
434.73647480019099
 20
-12.202112008371572
 10
434.68619478902968
 20
-12.209379569995596
 10
434.63642720590303
 20
-12.218851243220726
 10
434.58730621541645
 20
-12.230501494090518
 10
434.53896423907571
 20
-12.244298915588365
 10
434.49153159830229
 20
-12.260206312305257
 10
434.44513616310979
 20
-12.278180800712038
 10
434.3999030073889
 20
-12.298173924765811
 10
434.35595407173025
 20
-12.320131786538862
 10
434.31340783469432
 20
-12.343995191517951
 10
434.27237899341418
 20
-12.369699808182247
 10
434.23297815439196
 20
-12.39717634142974
 10
434.19531153532387
 20
-12.42635071938458
 10
434.15948067875541
 20
-12.457144293081761
 10
434.12558217834112
 20
-12.48947404849083
 10
434.09370741844492
 20
-12.523252830307028
 10
434.06394232778422
 20
-12.558389576906587
 10
434.03636714778088
 20
-12.594789565832766
 10
434.01105621624504
 20
-12.632354669150857
 10
433.98807776697322
 20
-12.670983617983733
 10
433.96749374580213
 20
-12.710572275514849
 10
433.9493596436136
 20
-12.751013917722682
 10
433.93372434674109
 20
-12.792199521089829
 10
433.92063000518067
 20
-12.834018056511127
 10
433.91011191896212
 20
-12.876356788608501
 10
433.90219844298633
 20
-12.919101579645602
 10
433.89691091058552
 20
-12.962137197222974
 10
433.89426357601207
 20
-13.005347624924227
 10
433.89426357601207
 20
-13.048616375075776
 10
433.89691091058552
 20
-13.091826802777026
 10
433.90219844298633
 20
-13.134862420354398
 10
433.91011191896212
 20
-13.177607211391502
 10
433.92063000518067
 20
-13.219945943488874
 10
433.93372434674109
 20
-13.261764478910171
 10
433.9493596436136
 20
-13.302950082277318
 10
433.96749374580213
 20
-13.343391724485151
 10
433.98807776697322
 20
-13.382980382016267
 10
434.01105621624504
 20
-13.421609330849144
 10
434.03636714778088
 20
-13.459174434167235
 10
434.06394232778422
 20
-13.495574423093414
 10
434.09370741844492
 20
-13.530711169692973
 10
434.12558217834112
 20
-13.56448995150917
 10
434.15948067875541
 20
-13.596819706918238
 10
434.19531153532387
 20
-13.627613280615421
 10
434.23297815439196
 20
-13.656787658570261
 10
434.27237899341418
 20
-13.684264191817753
 10
434.31340783469432
 20
-13.709968808482049
 10
434.35595407173025
 20
-13.733832213461138
 10
434.3999030073889
 20
-13.75579007523419
 10
434.44513616310979
 20
-13.775783199287961
 10
434.49153159830229
 20
-13.793757687694743
 10
434.53896423907571
 20
-13.809665084411636
 10
434.58730621541645
 20
-13.823462505909481
 10
434.63642720590303
 20
-13.835112756779273
 10
434.68619478902968
 20
-13.844584430004405
 10
434.73647480019099
 20
-13.851851991628429
 10
434.78713169336629
 20
-13.856895849590096
 10
434.8380289065276
 20
-13.859702406540084
 10
434.88902922978673
 20
-13.860264096497046
 10
434.93999517528897
 20
-13.858579405244166
 10
434.99078934785581
 20
-13.854652874411212
 10
435.0412748153783
 20
-13.848495089231106
 10
435.09131547796181
 20
-13.840122650004014
 10
435.14077643482705
 20
-13.829558127345866
 10
435.18952434797882
 20
-13.816830001341961
 10
435.23742780166185
 20
-13.801972584769707
 10
435.28435765663426
 20
-13.785025930597424
 10
435.33018739830402
 20
-13.766035724008635
 10
435.37479347779026
 20
-13.745053159242875
 10
435.41805564498895
 20
-13.722134801585089
 10
435.45985727274586
 20
-13.697342434875607
 10
435.50008567126315
 20
-13.670742894951847
 10
435.53863239189059
 20
-13.642407889470709
 10
435.57539351948435
 20
-13.612413804597406
 10
435.61026995254377
 20
-13.580841499081874
 10
435.64316767037133
 20
-13.547776086277871
 10
435.67399798653605
 20
-13.513306704692434
 10
435.70267778795625
 20
-13.477526277684207
 10
435.72912975895781
 20
-13.440531262958512
 10
435.75328258970364
 20
-13.402421392534418
 10
435.77507116843213
 20
-13.36329940388485
 10
435.79443675698718
 20
-13.323270762974536
 10
435.81132714916595
 20
-13.282443379942398
 10
435.82569681145714
 20
-13.240927318194906
 10
435.83750700579191
 20
-13.198834497694587
 10
435.84672589397422
 20
-13.156278393243603
 10
435.85332862351146
 20
-13.113373728575732
 10
435.8572973946122
 20
-13.070236167081474
 97
        1
330
4C6
 75
           0
 76
           0
 98
        0
  0
MTEXT
  5
4C8
100
AcDbEntity
  8
0
  6
Continuous
 62
           7
100
AcDbMText
 10
482.872824335999
 20
8.172080437335
 30
0.0
 40
5.6875
 41
310.0
 71
           1
 72
           1
  1
{ゴムカバー付マンホール(30型)FRP製φ300\P（劣化防止剤配合・表面スベリ止め凸加工ゴムカバーφ４００装着）}
 73
           1
 44
1.0
1001
TCAD
1000
TCW_REFPOINT
1002
{
1010
482.872824335999
1020
8.172080437335
1030
0.0
1002
}
1000
TCW40_TEXT
1002
{
1000
ＭＳ ゴシック
1070
           0
1070
         257
1002
}
  0
POINT
  5
4C9
100
AcDbEntity
  8
0
  6
Continuous
 62
           7
100
AcDbPoint
 10
460.493657
 20
-137.672657
 30
0.0
1001
TCAD
1000
TC25ExternalObject
1002
{
1000
TCW30POINT
1000

1070
           0
1071
        0
1040
1.0
1040
0.0
1000
Continuous
1000
0
1070
          21
1071
        1
1071
      242
1010
460.493657
1020
-137.672657
1030
0.0
1070
           3
1071
-2147483645
1070
           0
1000
$POINTSIZE
1070
           5
1040
19.2624176
1000
$POINTTYPE
1070
          18
1070
           5
1000
ExplodeScale
1070
           5
1040
1.0
1002
}
  0
MTEXT
  5
4CA
100
AcDbEntity
  8
0
  6
Continuous
 62
           7
100
AcDbMText
 10
278.79154465834
 20
-26.715219001539
 30
0.0
 40
5.6875
 41
140.0
 71
           1
 72
           1
  1
{ボールバルブ付カプラーバルブ\P50型  　砲金製}
 73
           1
 44
1.0
1001
TCAD
1000
TCW_REFPOINT
1002
{
1010
278.79154465834
1020
-26.715219001539
1030
0.0
1002
}
1000
TCW40_TEXT
1002
{
1000
ＭＳ ゴシック
1070
           0
1070
         257
1002
}
  0
POINT
  5
4CB
100
AcDbEntity
  8
0
  6
Continuous
 62
           7
100
AcDbPoint
 10
273.59672258357
 20
-35.15893841667
 30
0.0
1001
TCAD
1000
TCW_CUSTOM_DATA
1002
{
1000
#$AUX@_ToolInfo Properties
1070
           8
1000
挿入^Jポイント^J点@ポイント 点
1002
}
1000
TC25ExternalObject
1002
{
1000
TCW30POINT
1000

1070
           0
1071
        0
1040
1.0
1040
0.0
1000
Continuous
1000
0
1070
          21
1071
        1
1071
      242
1010
273.59672258357
1020
-35.15893841667
1030
0.0
1070
           3
1071
-2147483645
1070
           1
1000
#$AUX@_ToolInfo Properties
1070
           8
1000
挿入^Jポイント^J点@ポイント 点
1000
$POINTSIZE
1070
           5
1040
5.0
1000
$POINTTYPE
1070
          18
1070
           0
1000
ExplodeScale
1070
           5
1040
1.0
1002
}
  0
POINT
  5
4CC
100
AcDbEntity
  8
0
  6
Continuous
 62
           7
100
AcDbPoint
 10
711.483323677423
 20
-1.707847254488
 30
0.0
1001
TCAD
1000
TCW_CUSTOM_DATA
1002
{
1000
#$AUX@_ToolInfo Properties
1070
           8
1000
挿入^Jポイント^J点@ポイント 点
1002
}
1000
TC25ExternalObject
1002
{
1000
TCW30POINT
1000

1070
           0
1071
        0
1040
1.0
1040
0.0
1000
Continuous
1000
0
1070
          21
1071
        1
1071
      242
1010
711.483323677423
1020
-1.707847254488
1030
0.0
1070
           3
1071
-2147483645
1070
           1
1000
#$AUX@_ToolInfo Properties
1070
           8
1000
挿入^Jポイント^J点@ポイント 点
1000
$POINTSIZE
1070
           5
1040
5.0
1000
$POINTTYPE
1070
          18
1070
           0
1000
ExplodeScale
1070
           5
1040
1.0
1002
}
  0
ENDSEC
  0
SECTION
  2
OBJECTS
  0
DICTIONARY
  5
19
100
AcDbDictionary
280
           0
281
           1
  3
ACAD_GROUP
350
1A
  3
ACAD_MLINESTYLE
350
1B
  3
ACAD_LAYOUT
350
1E
  3
ACAD_PLOTSETTINGS
350
22
  3
ACAD_PLOTSTYLENAME
350
1F
  0
DICTIONARY
  5
1A
102
{ACAD_REACTORS
330
19
102
}
100
AcDbDictionary
280
           0
281
           1
  0
DICTIONARY
  5
1B
102
{ACAD_REACTORS
330
19
102
}
100
AcDbDictionary
280
           0
281
           1
  3
Standard
350
1C
  0
MLINESTYLE
  5
1C
100
AcDbMlineStyle
  2
STANDARD
 70
           0
  3

 62
         256
 51
90.0
 52
90.0
 71
           3
 49
5.0
 62
           7
  6
ByLayer
 49
0.0
 62
           7
  6
ByLayer
 49
-5.0
 62
           7
  6
ByLayer
  0
ACDBDICTIONARYWDFLT
  5
1F
102
{ACAD_REACTORS
330
19
102
}
100
AcDbDictionary
281
           1
  3
Normal
350
1D
100
AcDbDictionaryWithDefault
340
1D
  0
ACDBPLACEHOLDER
  5
1D
102
{ACAD_REACTORS
330
1F
102
}
  0
LAYOUT
  5
21
102
{ACAD_REACTORS
330
1E
102
}
100
AcDbPlotSettings
  1

  2

  4

  6

 40
0.0
 41
0.0
 42
0.0
 43
0.0
 44
0.0
 45
0.0
 46
0.0
 47
0.0
 48
0.0
 49
0.0
140
0.0
141
0.0
142
1.0
143
1.0
 70
           0
 72
           0
 73
           0
 74
           0
  7

 75
           0
147
1.0
148
0.0
149
0.0
100
AcDbLayout
  1
Layout1
 70
           0
 71
           0
 10
0.0
 20
0.0
 11
0.0
 21
0.0
 12
0.0
 22
0.0
 32
0.0
 14
0.0
 24
0.0
 34
0.0
 15
0.0
 25
0.0
 35
0.0
146
0.0
 13
0.0
 23
0.0
 33
0.0
 16
0.0
 26
0.0
 36
0.0
 17
0.0
 27
0.0
 37
0.0
 76
           0
330
B
331
0
345
0
346
0
  0
DICTIONARY
  5
1E
102
{ACAD_REACTORS
330
19
102
}
100
AcDbDictionary
280
           0
281
           1
  3
Model
350
4CD
  3
_PAPER_SPACE
350
4CE
  0
DICTIONARY
  5
22
102
{ACAD_REACTORS
330
19
102
}
100
AcDbDictionary
280
           0
281
           1
  0
LAYOUT
  5
4CD
100
AcDbPlotSettings
  1

  2

  4

  6

 40
0.0
 41
0.0
 42
0.0
 43
0.0
 44
0.0
 45
0.0
 46
0.0
 47
0.0
 48
0.0
 49
0.0
140
0.0
141
0.0
142
1.0
143
1.0
 70
           0
 72
           1
 73
           0
 74
           0
  7

 75
           0
147
1.0
148
0.0
149
0.0
100
AcDbLayout
  1
Model
 70
           0
 71
           0
 10
0.0
 20
0.0
 11
0.0
 21
0.0
 12
0.0
 22
0.0
 32
0.0
 14
0.0
 24
0.0
 34
0.0
 15
0.0
 25
0.0
 35
0.0
146
0.0
 13
0.0
 23
0.0
 33
0.0
 16
0.0
 26
0.0
 36
0.0
 17
0.0
 27
0.0
 37
0.0
 76
           0
330
A
331
0
345
0
346
0
  0
LAYOUT
  5
4CE
100
AcDbPlotSettings
  1

  2
none_device
  4

  6

 40
0.0
 41
0.0
 42
0.0
 43
0.0
 44
0.0
 45
0.0
 46
0.0
 47
0.0
 48
0.0
 49
0.0
140
0.0
141
0.0
142
1.0
143
1.0
 70
           0
 72
           0
 73
           0
 74
           0
  7

 75
           0
147
1.0
148
0.0
149
0.0
100
AcDbLayout
  1
_PAPER_SPACE
 70
           1
 71
           1
 10
0.0
 20
0.0
 11
0.0
 21
0.0
 12
0.0
 22
0.0
 32
0.0
 14
0.0
 24
0.0
 34
0.0
 15
0.0
 25
0.0
 35
0.0
146
0.0
 13
0.0
 23
0.0
 33
0.0
 16
0.0
 26
0.0
 36
0.0
 17
0.0
 27
0.0
 37
0.0
 76
           0
330
B
331
0
345
0
346
0
  0
ENDSEC
  0
EOF
